rock
 
|tablatures   |lyrics   |discussion forums   |more tabs @ XGuitar.com

Rem tabs

Romance bass tab

R.E.M. – Romance (Taken from the Eponymous EP)
Tabbed by: Jonathan Cochrane
Follow the song — Order isn’t that hard
Normal tuning

Intro:
G--9--------------------
D---9-7/6-6\7\9---------
A-----------------------
E---------------77------

G--9------------11---11-
D---9-7/6-6\7\9----9----
A-----------------------
E-----------------------

Verse (first half):
G----------------------------
D----------------------6h7---
A--5555-4444-7777-6-66-------
E--------------------------6-

Verse (second half):
G--8-8--------
D------66h8-8-
A-------------
E-------------

Bridge:
G--8---8---8---8---
D----8---8---8---8-
A------------------
E------------------

Outro:
G--9-------
D---9--7---
A----------
E--------0-
  development and support by
dmitry ivanov