rock
 
|tablatures   |lyrics   |discussion forums   |more tabs @ XGuitar.com

Rem tabs

New Orleans Instrumental No1 bass tab

New Orleans Instrumental No. 1

From: Norris Brady Thomas (Brady.Norris@Colorado.EDU)

 Intro                |
                      |      
  F5    C    F5    C  | F5    C    F5    C
G---------------------|-----------------------------
D---------------------|-3-3--------3-3--------------
A-3----------3--------|-------3-3--------3----------
E----------3----------|-----------------------------


  A5    E5    A5    E5    A5    E5    A5    E5
G---------------------------------------------------
D-------2-2---------2-----------2-2---------2-------
A-0-0---------0-0-0-------0-0---------0-0-----------
E-----------0-----------0-----------0---------------

 (play once)          |(repeat through fade) 
                      |  
  F5    C    F5    C  | F5    C    F5    C    
G---------------------|-----------------------------
D-3-3--------3-3------|-3-3--------3-3--------------
A-------3-3--------3--|-------3-3--------3----------
E---------------------|----------------3------------
  development and support by
dmitry ivanov