rock
 
|tablatures   |lyrics   |discussion forums   |more tabs @ XGuitar.com

Rem tabs

Man On The Moon bass tab

MAN ON THE MOON

From: Acetone1@aol.com

Verse:
G----------------------------------------------------------------|
D-----------5-7-------------7-9-----------5-----------5----------|
A--3-3-3---------5-5-5----------3-3-3-----3-3-3------------------|
E------------------------------------------------------------3---|

Andy did you hear....
G---------------------------------------------------|
D-----5-------------5-6----------7------------------|
A--3----3-------5-------------7---------5--2--------|
E-------------3-------------5---------3---------3---|

G---------------------------------------------|
D--------7--------------------------------5-4-|
A-----7--------2-3---5-5-5---5-5-5--------5---|
E--5--------3---------------------------------|

Chorus:
G-----------------------------------------------------------------------------------------------------|
D----------------------------------------------------------------------------------7-7---------7----|
A---------------3--2-2---------------5-5-5--3-2--------------3-2-2------7------7----7------|
E--3-3--5-5-------------3-3--5-5-----------------3-3--5-5-----------5------------5-------5-|

Guitar Bridge: (7/9/10 = 7, hammer on 9, slide to 10)
G---------------------|        G------------------------|
D---------------------|        D-----5----------5----5--|
A--7-7/9/10--5--5-5-5-|  3x    A--3----5----3----3------|
E---------------------|        E-----------5------------|
  development and support by
dmitry ivanov