rock
 
|tablatures   |lyrics   |discussion forums   |more tabs @ XGuitar.com

Rem tabs

Low bass tab

R.E.M. - Low

Part 1:

G -----------------------------
D -----------------------------
A -0-0---------2-2-2-2-2-2-2---
E -----0-3-3-0---------------0-

Part 2:

G -----------------------------------------------
D -----------------------------------------------
A -3-3-3-3-3-3-----------------------------------
E -------------3-3-3-3-3-0-----0-----0-----0-----

Repeat as necessary.

__________
Av Robert.
  development and support by
dmitry ivanov