rock
 
|tablatures   |lyrics   |discussion forums   |more tabs @ XGuitar.com

Rem tabs

Lotus bass tab

Band:R.E.M.
Song:Lotus
Album:Up

Intro / Verse
G|-------------------------|--------------2--0------------|
D|------2--0---------------|---------0----------3---------|
A|-0----------3------------|-0---2-----------------3----3-|
E|-----------------3-----3-|------------------------------|

G|--------------------0-|--------------|
D|-----0---2---3--------|------------0-|
A|-3--------------------|--------------|
E|----------------------|--------------|

Chorus
G|-------------------|---------------|-------------------|
D|-0---------2--3--0-|---------------|--------2--2--2--2-|
A|-------------------|-------------0-|-0--3--------------|
E|-------------------|---------------|-------------------|
  development and support by
dmitry ivanov