rock
 
|tablatures   |lyrics   |discussion forums   |more tabs @ XGuitar.com

Rem tabs

Leave bass tab

REM
Leave

Bass Tab by Joshua J.B. Smith


Verse (Mikey plays the Rhythm for this part slightly 
different later on, but it's easy to figure out):
G:6--6--\2--2--/4--4--/6--|
D:------------------------|
A:------------------------|
E:------------------------|


"That's what keeps me...":
G:--------------------------------------------
D:--------------------1-----------------------
A:--4-----4--4--4--4-----1-----1--1--1--1-----
E:-----------------------------------------4--

--------------------------------------------|
--------------------1-----------------------|
--4-----4--4--4--4--------------------6-----|
-----------------------4-----4--4--4-----4--|


"You Leave.......":
G:-----------------1--------------------------
D:--------------------1-----------------------
A:--4-----4--4--4--------1-----1--1--1--1-----
E:-----------------------------------------4--

-----------------------------------------------|
-----------------------------------------------|
-----------------------------------------------|
--4-----4--4--4--4--1--2-----2--2--2--2--0--2--|
  development and support by
dmitry ivanov