rock
 
|tablatures   |lyrics   |discussion forums   |more tabs @ XGuitar.com

Rem tabs

Everybody Hurts bass tab

Artist - REM
Song - Everybody Hurts
Tabber - Chris (chris.chivers@ntlworld.com)

My first bass-tab and a very easy one too.
Although it isnt too tricky, dont switch off completely when playing 
as its important to get the chord changes right.



Intro

G:|------------|------------|
D:|0----00----0|-----0------|	x 2
A:|------------|------------|
E:|------------|3-----3----3|


Verse 
(Day is long...)
	
G:|------------|------------|
D:|0----00----0|-----0------|	x 3
A:|------------|------------|
E:|------------|3-----3----3|


Pre-Chorus

G:|------------|------------|
D:|0----00----0|-----0------|	x 1
A:|------------|------------|
E:|------------|3-----3--2--|


Chorus
(Dont let yourself go...)

G:|------------|------------|
D:|------------|------------|	x 2
A:|------------|0-----0--0--|
E:|0----00----0|-----0----32|


After-Chorus

G:|------------|------------|
D:|------------|------------|	x 1
A:|------------|0----00-----|
E:|0----00----0|------------|


Verse x 5

Pre-Chorus x 1

Chorus x 2

Transition 

G:|------------|------------|
D:|------------|------------|	x 1
A:|------------|0----00--0--|
E:|0----00----0|----------43|


Bridge
(Don't throw your hands...)

G:|------------|------------|
D:|------------|------------|	x 3
A:|------------|2----22--20-|
E:|2----22--2--|-----------3|


Bridge Ending

G:|------------|------------|------------|------------|
D:|------------|-----0------|------------|------------|	x 1
A:|3-----3--3--|----------02|3-----3--3--|0----00-----|
E:|-----3------|3-----3--3--|-----3------|------------|


Verse x 3

Pre-Chorus x 1

Chorus x 2

After-Chorus x 1

===HALF BAR REST===

VERSE x 8  (and fade out)   



Thats about it, sometimes the bass varies slightly in rhythm, 
listen to the song for more help.
Any comments, suggestions or corrections:   chris.chivers@ntlworld.com
  development and support by
dmitry ivanov