rock
 
|tablatures   |lyrics   |discussion forums   |more tabs @ XGuitar.com

Rem tabs

Electrolite bass tab

REM
Electrolite
Bass Tab by Joshua J.B. Smith (eyedunno@hotmail.com)

(Note: listen to the song for the real rhythm)


Verse (repeat as often as necessary):
G:------------------------------------------------|
D:------------------------------------------------|
A:---------2--3--3--5--3-----------2--3--3--2--0--|
E:3--3--3-----------------3--3--3-----------------|


1st Part of Chorus:
G:------------------------------------------------
D:0--0--0--2--------------0--0--0--2--------------
A:------------0--0--0--3--------------0--0--0--3--
E:------------------------------------------------

G:---------------------------|
D:0--0--0--2-----------1--2-.|
A:------------2--2--2-------.|
E:---------------------------|

"Electrolite" Part of Chorus:
G:0--2--0-----|0-----|
D:---------2-.|---0--|
A:-----------.|------|
E:------------|------|


Violin Solo:
G:---------------4-----------------------------|
D:--------------------------------------------.|
A:2--2--2--2--2-----2--0--0--0--0--0--0-----0-.|
E:---------------------------------------3-----|

---------------4--------------------------------
------------------------------------------------
2--2--2--2--2-----2--0--0--0--0--0--0-----0--2--
---------------------------------------3--------

---------------------------------------
---------------------------------------
3--3--3--3--3--3--3--3--5--5--5--5--5--
---------------------------------------
  development and support by
dmitry ivanov