rock
 
|tablatures   |lyrics   |discussion forums   |more tabs @ XGuitar.com

Rem tabs

Departure bass tab

REM
Departure
Bass Tab by Joshua J.B. Smith (eyedunno@hotmail.com)


Verse:
G:------------------------------2--4--2--0--2--|
D:0--0-----0--0--0-----0--0--0-----------------|
A:---------------------------------------------|
E:---------------------------------------------|


Chorus:
G:--------------0--0--------|
D:2--2--2--2h0--------2--0--|
A:--------------------------|
E:--------------------------|


"Go... Go..." Part:
G:------------------------------------------------
D:------------------------------------------------
A:2--2-----2--2--2-----2--2--2-----2--2-----0-----
E:------------------------------------------------

------------------------------------------------
------------------------------------------------
------------------------------------------------
3--3-----3--3--3-----3--3--3-----3--3--3-----3--
  development and support by
dmitry ivanov