rock
 
|tablatures   |lyrics   |discussion forums   |more tabs @ XGuitar.com

Rem tabs

Binky The Doormat bass tab

Binky the Doormat
Bass Tab by Joshua J.B. Smith (eyedunno@hotmail.com)


Verse:
G:2-----2--2-----4-----4--4\0-----2-----2--2--------------------0--|
D:-----------------------------------------------2-----2--2--------|
A:-----------------------------------------------------------------|
E:-----------------------------------------------------------------|


Chorus:
G:---------------------------------------------------------------
D:---------------------0-----------------------------------------
A:0-----0--0--0--2--3-----------------------------------------0--
E:---------------------------3-----3--3--6--6--6--6--5--3--3-----

------------------------------------------------------|
---------------------0--------------------------------|
0-----0--0--0--2--3-----------------------------------|
---------------------------3-----3--3-----3-----3--3--|


Interlude:
G:------------------------------------------|
D:------------------------------------------|
A:5--5-----5--5--5-----3-----2-----0--0--2--|
E:------------------------------------------|
  development and support by
dmitry ivanov