rock
 
|tablatures   |lyrics   |discussion forums   |more tabs @ XGuitar.com

Rem tabs

Be Mine guitar tab

BE MINE

From: Marc (marc@football.demon.nl)

intro:
e:------------|
B:------------|
G:------------| just figure out some place on the fretboard
D:-x--x--x--x-| where you get the right sound
A:-x--x--x--x-|
E:------------|

verse:
e:-------------------------------------|
B:-------------------------------------|
G:-------------------------------------| riff A
D:-9h11-11-11---9-11--13--14---14-13-\-|
A:-0-----0--0---0--0-0-0-0-0----0--0---|
E:-------------------------------------|

e:-------------------------------------|
B:-------------------------------------|
G:-------------------------------------| riff B
D:-------------------------------------|
A:-9h11-11-11---9-11-----11----11-11-x-|
E:-0-----0--0---0--0------0-----0--0-x-|

Repeat several times

then:
e:------------------0-let-------------|
B:------------------0-ring------------| after this, play
G:-11---11--11-11-\-8---8-8-8-8-8-8-x-| riff B again and
D:-12---12--12-12-\-9---9-9-9-9-9-9-x-| play the verse (riff
A:-12---12--12-12-\-9---9-9-9-9-9-9-x-| A and B) again a few
E:-10---10--10-10-\-7---7-7-7-7-7-7-x-| times
    D    D   D  D   D   D - - - - - U  (D/U means down/up str.)

When you reach the chorus you play this (after the above chords):

chorus (the You & Me part):
e:-0-------0-0-----0-let-------------|
B:-0-------0-0-----0-ring------------|
G:-1-------1-1--/--8---8-8-8-8-8-8-x-|
D:-2-------2-2--/--9---9-9-9-9-9-9-x-|
A:-2-------2-2--/--9---9-9-9-9-9-9-x-|
E:-0-------0-0-----7---7-7-7-7-7-7-x-|
   D       D U     D   D - - - - - U

e:-0-----0--0-0---0-0-0-0-0-0---|
B:-0-----0--0-0---0-0-0-0-0-0---|
G:-4-----4--4-6---6-6-6-6-6-6-x-|
D:-6-----6--6-7---7-7-7-7-7-7-x-|
A:-6-----6--6-7---7-7-7-7-7-7-x-|
E:------------------------------|
   D     D  U D   D - - - - - U

e:-0---0-------(0-0-0-0-0-0)--|-0---0--x-x-2/4-4-4-2--x-x-|
B:-0---0-------(0-0-0-0-0-0)--|-2---2--x-x-2/4-4-4-2--x-x-|
G:-2---2--2-3---3-3-3-3-3-3-x-|-4---4--x-x-2/4-4-4-2--x-x-|
D:-4---4--4-4---4-4-4-4-4-4-x-|-4---4--x-x-2/4-4-4-2--x-x-|
A:-4---4--4-4---4-4-4-4-4-4-x-|-0-let-ring----------------|
E:----------------------------|---------------------------|
   D   D  D U   D - - - - - U   D   D D U  D   D U U  D U

Repeat a lot of times


Lyrics:
 
I never thought of this as funny
It speaks another world to me
I wanna be your Easter bunny
I wanna be your Christmas tree.

I'll strip the world that you must live in
of all its godforsaken greed.
I'll ply the tar of your feathers
I'll pluck the thorns out of your feet.
You and me.
You and me.
You and me.

And if I choose your sanctuary.
I'll want to wash you with my hair.
I'll want to drink of sacred fountains
and find elixirs hidden there.

I'll eat the lotus and peyote.
I'll want to hear the caged-bird sing.
I'll want the secrets of the temple.
I'll want the finger with the ring.
You and me.
You and me.
You and me.

And if you made me your religion.
I'll give all the room you need.
I'll be the drawing of your breath.
I'll be cup if you should bleed.
I'll be the sky above the Ganges
I'll be the vast and stormy sea.
I'll be the lights that guide you inland.
I'll be the visions you will see.
Visions you will see.
You will see.
You will see.
You and me.
You and me.
You and me. 

  development and support by
dmitry ivanov