rock
 
|tablatures   |lyrics   |discussion forums   |more tabs @ XGuitar.com

Rem tabs

At My Most Beautiful bass tab

Song: "At My Most Beautiful"
by R.E.M.
from the album: "Up"
written by: Bucks, Mills, Stipe
tabbed by: Guido Comparato <comparato@fcmail.com>

 Intro & Chorus ("I've found a way...")
G|------------------------------------------------------------------|
D|--0--1--2--3-3-3-4-5---7---------5---7---------5---7---8-------3--|
A|---------------------------1-------------1-----------------3------|
E|------------------------------------------------------------------|

 Verse ("I read bad poetry...")
G|---------------------------|
D|----7----8----5----3-------|
A|---------------------------|
E|---------------------------| (x3)

G|-----------------------------|
D|----7----8----5---6--7-8--3--|
A|-----------------------------|
E|-----------------------------|

 Outro
G|-------------------------------------|
D|----5---7---8-----5---7---8-------3--|
A|------------------------------3------|
E|-------------------------------------|

 This is a wonderful song and it's easy to play, you can also play the 
 verse one octave lower, if you prefer...

 Corrections, comments or anything else to comparato@fcmail.com
 
 Bye bye
  development and support by
dmitry ivanov