rock
 
|tablatures   |lyrics   |discussion forums   |more tabs @ XGuitar.com

Red Hot Chili Peppers tabs

Warm Tape guitar tab

Band: Red Hot Chili Peppers
Song: Warm Tape
Tuning: Standard E-B-G-D-A-E
Tabbed by: Xander

This tab isn't great, it's a just a rough guide. Anyone who has a better tab, i would really appreciate it if you post it.

Intro: (Repeated)
e|------------------------8-------------------------------------
b|---------------8-6-10-----10----------------------------------
g|----8-6-10---8---------------12-10---8------------------------
d|--9------------------------------------10---------------------
a|------------------------------------------12-10---------------
e|--------------------------------------------------------------


Chorus:
Miles and miles...
e|--2-2-2-2-2-2---5-5---7-----2-2-2-2-2-2-----------------------
b|--3-3-3-3-3-3---7-7---9-----3-3-3-3-3-3-----------------------
g|--4-4-4-4-4-4---7-7---9-----4-4-4-4-4-4---6-6-6-6-------------
d|--4-4-4-4-4-4---7-7---9-----4-4-4-4-4-4---7-7-7-7-------------
a|------------------------------------------7-7-7-7-------------
e|------------------------------------------5-5-5-5-------------
 |
e|--------------------------------------------------------------
b|--------------------------------------------------------------
g|----------------------------4---------------------------------
d|----------------------------4---------------------------------
a|----------------------------2-2-2-2-2-2---0-0-0-0-------------
e|--------------------------------------------------------------


e|--2-2-2-2-2-2---5-5---7---------------------------------------
b|--3-3-3-3-3-3---7-7---9-----7-7-7-7-7-7-7-7-7-7/9-9-9---------
g|--4-4-4-4-4-4---7-7---9-----7-7-7-7-7-7-7-7-7-7/9-9-9---------
d|--4-4-4-4-4-4---7-7---9-----7-7-7-7-7-7-7-7-7-7/9-9-9---------
a|----------------------------5-5-5-5-5-5-5-5-5-5/7-7-7---------
e|--------------------------------------------------------------
 |
e|--------------------------------------------------------------
b|--------------------------------------------------------------
g|----------------------------7---------------------------------
d|----------------------------7---------------------------------
a|----------------------------5-5-5-5-5-5-5-5-3-5/7-------------
e|--------------------------------------------------------------


e|--2-2-2-2-2-2---5-5---7-----2-2-2-2-2-2---5-5---7-------------
b|--3-3-3-3-3-3---7-7---9-----3-3-3-3-3-3---7-7---9-------------
g|--4-4-4-4-4-4---7-7---9-----4-4-4-4-4-4---7-7---9-------------
d|--4-4-4-4-4-4---7-7---9-----4-4-4-4-4-4---7-7---9-------------
a|--------------------------------------------------------------
e|--------------------------------------------------------------

The two of us were made of...        I've been around... 
e|--9--9--9--9--9--9--9-/7-7/5-5-----7-7-7-7-7-7-7-7-5----------
b|--11-11-11-11-11-11-11/9-9/7-7-----9-9-9-9-9-9-9-9-7----------
g|--11-11-11-11-11-11-11/9-9/7-7-----9-9-9-9-9-9-9-9-7----------
d|--11-11-11-11-11-11-11/9-9/7-7-----9-9-9-9-9-9-9-9-7----------
a|--------------------------------------------------------------
e|--------------------------------------------------------------
  development and support by
dmitry ivanov