rock
 
|tablatures   |lyrics   |discussion forums   |more tabs @ XGuitar.com

Red Hot Chili Peppers tabs

Universally Speaking guitar tab

Chorus: A (barre on 5-fret) C#m G (3-fret) D (5-fret) A

solo:
|-------------------------------------------------------------|
|-------------------------------------------------------------|
|---11-9----9-------------------------------------------------|
|--------12----12-11--12-11-12/-14--12-11-12-/-14-------------|
|-------------------------------------------------12--12-12-12|
|-------------------------------------------------------------|


|-------------------------------------------------------------|
|-------------------------------------------------------------|
|---11-9----9------------------------------------14--14-14-14-|
|--------12----12-11--12-11-12/-14--12-11-12-/-14-------------|
|-------------------------------------------------------------|
|-------------------------------------------------------------|


|-------------------------------------------------------------|
|-------------------------------------------------------------|
|---11-9----9-------------------------------------------------|
|--------12----12-11--12-11-12/-14--12-11-12-/-14-------------|
|-------------------------------------------------12--12-12-12|
|-------------------------------------------------------------|

|------------------------------------------------------------|
|------------------------------------------------------------|
|------------------------------------------------------------|
|----------------7--7/12-------------------------------------|
|--12-10-9-b9--5---------------------------------------------|
| -----------------------------------------------------------|


D4
|-----|
|--8--|
|--7--|
|--7--|
|--5--|
|-----|
  development and support by
dmitry ivanov