rock
 
|tablatures   |lyrics   |discussion forums   |more tabs @ XGuitar.com

Red Hot Chili Peppers tabs

Throw Away Your Television bass tab

Throw Away Your Television - Bass tab

By the Red Hot Chili Peppers
From the Album "By the Way"
Tabbed by Tabmaster Timothy Marti (mynameisgreat@hotmail.com)

Normal tuning

Intro: (x1)
G-|-----------------------|------------------------| 
D-|-----------------------|-----2---2-2--2-2-------|
A-|-----------------------|--------------------3-3-|
E-|-5--5-5-0-5-5--5-0-5-3-|-0-0---0----------0-----|

Verse: (x18)
G-|-----------------------|------------------------| 
D-|-----------------------|-----2---2-2--2-2-------|
A-|-----------------------|--------------------2-3-|
E-|-5--5-5-0-5-5--5-0-5-3-|-0-0---0----------0-----|

Chorus: (x1) This part is a little hard to hear
G-|-14---14---14---|-16---16---12---12| (x3)
D-|----14---14--14-|----14---14-------|
A-|----------------|------------------|
E-|----------------|------------------|

G-|-12---12---12---|-10---10---10---|
D-|----12---12--12-|----10---10--10-|
A-|----------------|----------------|
E-|----------------|----------------|

Verse: (x10)

Chorus: (x1)

Interlude: (x4)
G-|-2--2-2-2-2--2-2-2-2--2-|-/4--4-4-4-4--4-4-4-4--4-|
D-|------------------------|-------------------------|
A-|------------------------|-------------------------|
E-|------------------------|-------------------------|

G-|-/7--7-7-7-7--7-7-7-7/9--9-9p7-|
D-|-------------------------------|
A-|-------------------------------|
E-|-------------------------------|

G-|-7--7-7-7-7--7-7-7-7--7--|
D-|-------------------------|
A-|-------------------------|
E-|-------------------------|

Verse: (x4)

Endnote: 

G-|-----|
D-|-----|
A-|-0---|
E-|-----|
  development and support by
dmitry ivanov