rock
 
|tablatures   |lyrics   |discussion forums   |more tabs @ XGuitar.com

Red Hot Chili Peppers tabs

This Velvet Golve guitar tab

I believe the intro riff to be something like this:

---------------------------------
-----1--3-----1--3---------------
--2--------0---------------------
--------------------3--2--3--2---
---------------------------------
---------------------------------

---------------------------------
-----1--3-----1--3---------------
--2--------0---------------------
--------------------3--2--3--2---
---------------------------------
---------------------------------

--3--1--0------------------------
-----------1--1h3----------------
---------------------------------
---------------------------------
---------------------------------
---------------------------------

--5--3--0------------------------
-----------1--1h3----------------
---------------------------------
---------------------------------
---------------------------------
---------------------------------

And the chords that go over this are Dm C and Bb.  Listen to the song and
you'll figure it out.

and for the verse you play:

------------------12x12x12-------
------------------10x10x10-------
---------------------------------
---------------------------------
---5*--5*---5*-------------------
---------------------------------

The * implies natural harmonics.

John scatters the 5*'s around all the time, so just listen to the song to
get it right.

  development and support by
dmitry ivanov