rock
 
|tablatures   |lyrics   |discussion forums   |more tabs @ XGuitar.com

Red Hot Chili Peppers tabs

This Velvet Glove guitar tab

Author/Artist: Red Hot Chili Peppers
Title: This Velvet Glove
Album: Californication
Transcribed by: Andres
Email: la_laker83@hotmail.com
 

Chords for this song are: Dm C Bb
The vertical bars show when Dm is played
 
The song is changing all the time so i tabbed almost every note
 
-Intro
 
   Dm     C     Bb   Dm     C     Bb   Dm   C     Bb
E------------------|-----------------|-3--1-0----------|
B-----1-3---1-3----|----1-3---1-3----|---------1-1/3---|
G--2------2--------|-2------2--------|-----------------|
D---------------3--|--------------3--|-----------------|
A------------------|-----------------|-----------------|
E------------------|-----------------|-----------------|
                                                                              
  Dm   C    Bb
E-5--3-0---------------|
B---------1-3--3-33--3-|
G----------------------|
D----------------------|
A----------------------|
E----------------------|
                                                                            
-Verse
 
  Dm  C  Bb Dm C  Bb        Dm    C   Bb 
E-5--5--5--|--------10-10-|-------------|
B----------|10--10--10-10-|-10--10--10--|
G----------|--------------|-------------|
D----------|--------------|-------------|
A----------|--------------|-------------|
E----------|--------------|-------------|
                                                                              
 
  Dm C   Bb      --etc.
E----------10-10--|--------------10---|
B-10--10---10-10--|-10--10--10---10---|
G-----------------|-------------------|
D-----------------|-------------------|
A-----------------|-------------------|
E-----------------|-------------------|
 
E------------|-10-10-------------|-10-10-----|
B-10--10--10-|-10-10-10--10--10--|-10-10-10--|
G------------|-------------------|-----------|
D------------|-------------------|-----------|
A------------|-------------------|-----------|
E------------|-------------------|-----------|
                                                                              
 
E--------------------------|----------------------------|
B----1-3---1-3-------------|----1-3---1-3---------------|
G-2------2-----------------|-2------2-------------------|
D--------------3---3--3-3--|--------------3---3-3--3-3--|
A--------------------------|----------------------------|
E--------------------------|----------------------------|
                                                                              
 
E-3--1-0----------------|-5--3-0-------10-10----|
B---------1--3---3--3-3-|--------1-3---10-10-10-|
G-----------------------|-----------------------|
D-----------------------|-----------------------|
A-----------------------|-----------------------|
E-----------------------|-----------------------|
                                                                              
 
E-10-10-------10-10-----|-10-10-----|----------10-10------10-10----|
B-10-10-10----10-10-10--|-10-10-10--|-10-10-10-10-10-10---10-10-10-|
G-----------------------|-----------|------------------------------|
D-----------------------|-----------|------------------------------|
A-----------------------|-----------|------------------------------|
E-----------------------|-----------|------------------------------|
                                                                              
 
E-10-10-----|
B-10-10-10--|
G-----------|
D-----------|
A-----------|
E-----------|
                                                                              
-Chorus
 
  Dm            C      Bb
E-8---5-5--8--8-8-5-5--13--10-10--13--10-10--|
B--------------------------------------------|Play this
G--------------------------------------------|riff
D--------------------------------------------|3 times
A--------------------------------------------|
E--------------------------------------------|
                                                                              
 
E-10--8-8--10-10-8-8--5----------------------|
B--------------------------------------------|
G--------------------------------------------|
D--------------------------------------------|
A--------------------------------------------|
E--------------------------------------------|
                                                                              
-Interlude
 
  Dm    C    Bb                  Dm   C    Bb
E-----8-10---------------------|----8-10------------------
B-10-------8-10--10-10--10-10--|-10------8-10--10-10--10--
G------------------------------|--------------------------
D------------------------------|--------------------------
A------------------------------|--------------------------
E------------------------------|--------------------------
                                                                              
-Verse
 
E-------------|---------10-10--|-------------|---------10-10-|
B-10--10--10--|-10--10--10-10--|-10--10--10--|-10--10--10-10-|
G-------------|----------------|-------------|---------------|
D-------------|----------------|-------------|---------------|
A-------------|----------------|-------------|---------------|
E-------------|----------------|-------------|---------------|
                                                                              
 
E-------------10-10--|
B-10--10--10--10-10--|Play this
G--------------------|riff
D--------------------|3 times
A--------------------|
E--------------------|
                                                                              
 
E--------------|
B-10--10--10---|
G--------------|
D--------------|
A--------------|
E--------------|
                                                                              
-Interlude
 
E-------------------------------------------------|
B-7-7--7-7--7-7--7-7--10-10--10-10--10-10--10-10--|
G-------------------------------------------------|
D-------------------------------------------------|
A-------------------------------------------------|
E-------------------------------------------------|
                                                                              
 
E-------------------------------------------------|
B-12-12--12-12--12-12--12-12--15-15-15/17--15-----|
G-------------------------------------------------|
D-------------------------------------------------|
A-------------------------------------------------|
E-------------------------------------------------|
                                                                              
-Interlude
 
E-------------13-15----------------------|
B-10-10---15--------13-15--15-15--15-15--|
G----------------------------------------|
D----------------------------------------|
A----------------------------------------|
E----------------------------------------|
                                                                              
 
E-13--15-17------------------------------|
B-----------13-15---15-------------------|
G----------------------------------------|
D----------------------------------------|
A----------------------------------------|
E----------------------------------------|
                                                                              
-Verse
 
E-10-10--|--------10-10--|--------10-10--|--------10-10--| )
B-10-10--|-10--10-10-10--|-10--10-10-10--|-10--10-10-10--| )
G--------|---------------|---------------|---------------| )
D--------|---------------|---------------|---------------| )
A--------|---------------|---------------|---------------| )
E--------|---------------|---------------|---------------| )Play this
                                                           )                     
                                                           )3 times
E---------------------|--------------|                     )
B-10--10-10-10-10-10--|-10-10-10-10--|                     )
G---------------------|--------------|                     )
D---------------------|--------------|                     )
A---------------------|--------------|                     )
E---------------------|--------------|                     )
                                                       
E-10-10------|
B--------10--|
G------------|
D------------|
A------------|
E------------|
 
 
 
Thanks, enjoy.  
 
Questions, comments, suggestions to la_laker83@hotmail.com
  development and support by
dmitry ivanov