rock
 
|tablatures   |lyrics   |discussion forums   |more tabs @ XGuitar.com

Red Hot Chili Peppers tabs

This Is The Place bass tab

Song: This Is The Place
Band: Red Hot Chili Peppers
Album:By The Way

Intro/Verse/Chorus/Outro:

G:-2-2-2-5-5-0-0-0-------5-5-2-2-2-------2-2-------------------------
D:-----------------3-3-3-----------0-0-0-----3-3-3-------5-5---------
A:-------------------------------------------------3-3-3-----5-5-5---
E:-------------------------------------------------------------------

G:-2-2-2-5-5-0-0-0-------5-5-2-2-2-------2-2-------------------------
D:-----------------3-3-3-----------0-0-0-----3-3-3-------------------
A:-------------------------------------------------3-3-3-----5-5-5---
E:-------------------------------------------------------3-3---------

Bridge:

G:-------------------------------------------
D:-------------------------------------------
A:-------------------------------------------
E:-1~~~~~~~~---------------------------------

End:

G:-----2-------------------------------------
D:-------------------------------------------
A:-0-0---------------------------------------
E:-------------------------------------------

Plase check out my other tabs! I plan to tab the whole By The Way album....
  development and support by
dmitry ivanov