rock
 
|tablatures   |lyrics   |discussion forums   |more tabs @ XGuitar.com

Red Hot Chili Peppers tabs

They're Reh Hot guitar tab

BAND: RED HOT CHILI PEPPERS
SONG: THEY'RE RED HOT
ALBUM: RED(BLOOD)HOT(SUGAR)CHILI(SEX)PEPPERS(MAGIK)
TABBED BY: davenator666 
EMAIL: davenator666@hotmail.com

Email me if it's incorrect.
Standard Tuning
x-Finger mute


Chorus
E|-----0--------|------3--3---3--3--2-|--2--2--------1-|
B|-----0------4-|------2--2---2--2--1-|--1--1--------0-|
G|-----0------4-|------0--0---0--0--2-|--2--2----0---0-|
D|-----2------4-|------2--2---2--2----|--0--0----0-----|
A|--3--3---2--2-|--0------------------|----------x-----|
E|--------------|---------------------|----------3-----|
      Hot.......Red......Hot.......Yeah,

E|------0--0--0--0--0-|------0----------|-------3--3---3--3---2-|
B|------1--1--1--1--1-|------0--------4-|-------2--2---2--2---1-|
G|--0---0--0--0--0--0-|------0--------4-|-------0--0---0--0---2-|
D|--2---2--2--2--2--2-|------2--------4-|-------2--2---2--2-----|
A|--3-----------------|--3---3----2---2-|---0-------------------|
E|--------------------|-----------------|-----------------------|
      Hey              Hot..Hot...they're.red....hot


E|--2---2---2---2---2---1-|---1---1---1---1---x-||----0---|
B|--1---1---1---1---1---0-|---0---0---0---0---x-||----1---|
G|--2---2---2---2---2---0-|---0---0---0---0---x-||----0---|
D|--0---0---0---0---0---0-|---0---0---0---0-----||----2---|
A|------------------------|---x-----------------||----3---|
E|------------------------|---3-----------------||--------|
   She's got em for sale


E|--0------0-|------5------5-|------4------4---|
B|--1------1-|------6------6-|------6------6---|
G|--0------0-|------5------5-|------5------5---|
D|--2------2-|------7------7-|------6------6---|
A|--3------3-|---------------|-----------------|
E|-----------|---------------|-----------------|


Then the CHORUS again...

E|-------0---0---0---0---0-|--2---2---------1-|------0---0---0---0---0-|
B|-------1---1---1---1---1-|--1---1----0----1-|------1---1---1---1---1-|
G|---0---0---0---0---0---0-|--2---2----0----0-|--3---0---0---0---0---0-|
D|---2---------------------|--0---0----0------|--2---------------------|
A|---3---------------------|-----------x------|--0---------------------|
E|-------------------------|-----------3------|------------------------|


E|---0------0------0---|
B|---1------1------1---|
G|---0------0------0---|
D|---2------2------2---|
A|---3------3------3---|
E|---------------------|
  development and support by
dmitry ivanov