rock
 
|tablatures   |lyrics   |discussion forums   |more tabs @ XGuitar.com

Red Hot Chili Peppers tabs

The Zephyr Song bass tab

Music X Tabs [http://www.mxtabs.net]
Band: Red Hot Chili Peppers
Song: The Zephyr Song

Tuning: 4-String Standard (E A D G - low to high)
Time:  4/4

key: G minor on the verses
     G major on the chorus

Tabbed By Aaron Reeves

Key:

(x) - hold x until the *
/ - slide up (from low to high)
\ - slide down (from high to low)

For those who haven't checked or don't know, a zephyr is a soft gentle breeze



117BPM (approx.)

Intro: 

G|--------r-------|--------r-------|--------r-------|--------r-------|
D|--------e-------|--------e-------|--------e-------|--------e-------|
A|--------s-------|--------s-------|--------s-------|--------s-------|
E|--------t-------|--------t-------|--------t-------|--------t-------|

G|----------------|----------------|----------------|----------------|
D|7---------------|5---------------|----------------|----------------|
A|----------------|----------------|7---------------|8---------------|
E|----------------|----------------|----------------|----------------|


Verse1: 

G|----------------|----------------|----------------|----------------|
D|7--7-9--9-7-----|5--5-7--7-5-----|-----9--9-------|----------------|
A|----------------|----------------|7--7------7-----|8--8------8-----|
E|----------------|----------------|----------------|-----8--8-------|

G|----------------|----------------|----------------|-----------------|
D|7--7-9--9-7-----|5--5-7--7-5-----|-----9--9-------|-----------------|
A|----------------|----------------|7--7------7-----|8--8------8-10---|
E|----------------|----------------|----------------|-----8--8--------|

G|----------------|-----7--7-------|----------------|----------------|
D|7--7-9--9-7-----|5--5------5-----|-----9--9-------|----------------|
A|----------------|----------------|7--7------7-----|8--8----8-8-----|
E|----------------|----------------|----------------|-----8----------|

G|----------------|----------------|----------------|------------------|----------------|
D|7--7-9--9-7-----|5--5-7--7-5-----|----------------|--9-10---9-(10)---|-----------*----|
A|----------------|----------------|7--7------7-----|8------8----------|----------------|
E|----------------|----------------|-----7--7-------|------------------|----------------|

Chorus:

note - watch out, this rhythm isn't as regular as you'd expect. 

G|---11---14-------11-|--14--------11------|---16------14----------|---11-14---14-16-14---|
D|12------------12----|---------12----12---|12------12------12/14--|14--------------------|
A|--------------------|--------------------|-----------------------|----------------------|
E|--------------------|--------------------|-----------------------|----------------------|

G|---11---14-------11-|--14--------11------|---16------14----------|---11-14---16----14---|
D|12------------12----|---------12----12---|12------12------12/14--|14------------14------|
A|--------------------|--------------------|-----------------------|----------------------|
E|--------------------|--------------------|-----------------------|----------------------|

Verse2:

G|----------------|----------------|----------------|----------------|
D|7--7-9--9-7-----|5--5-7--7-5-----|-----9--9-------|----------------|
A|----------------|----------------|7--7------7-----|8--8----8-8-----|
E|----------------|----------------|----------------|-----8----------|

G|----------------|----------------|----------------|-----------------|
D|7--7-9--9-7-----|5--5-7--7-5-----|-----9--9-------|-----------------|
A|----------------|----------------|7--7------7-----|8--8------8-10---|
E|----------------|----------------|----------------|-----8--8--------|

G|-----9--9-------|-----7--7-------|----------------|------------------|----------------|
D|7--7------7-----|5--5------5-----|-----9--9-------|--9-10---9-(10)---|-----------*----|
A|----------------|----------------|7--7------7-----|8------8----------|----------------|
E|----------------|----------------|----------------|------------------|----------------|

Chorus2:

G|---11---14-------11-|--14--------11------|---16------14----------|---11-14---14-16-14---|
D|12------------12----|---------12----12---|12------12------12/14--|14--------------------|
A|--------------------|--------------------|-----------------------|----------------------|
E|--------------------|--------------------|-----------------------|----------------------|

G|---11---14-------11-|--14--------11------|---16------14----------|---11-14-16---14------|
D|12------------12----|---------12----12---|12------12------12/14--|14---------------14---|
A|--------------------|--------------------|-----------------------|----------------------|
E|--------------------|--------------------|-----------------------|----------------------|

G|---11---14-------11-|--14-----12-11------|---16------14----------|---11-14---14-16-14---|
D|12------------12----|---------------12---|12------12------12/14--|14--------------------|
A|--------------------|--------------------|-----------------------|----------------------|
E|--------------------|--------------------|-----------------------|----------------------|

G|---11---14-------11-|--14-----12-11------|---16------14----------|---11-14---14-16-14---|
D|12------------12----|---------------12---|12------12------12/14--|14--------------------|
A|--------------------|--------------------|-----------------------|----------------------|
E|--------------------|--------------------|-----------------------|----------------------|

- for some reason the bass on the last two bars of this chorus is very quite and it
  is very hard to tell what Flea is playing - so I've just made the assumption that he
  plays something similar.

Solo:

G|9--99-9-9----9--|7--77-7-7----7--|----------------|----------------------|
D|----------------|----------------|9--99-9-9----9--|10--1010-10-10----10--|
A|----------------|----------------|----------------|----------------------|
E|----------------|----------------|----------------|----------------------|

G|9--99-9-9----9--|7--77-7-7----7--|----------------|----------------------|
D|----------------|----------------|9--99-9-9----9--|10--1010-10-10----10--|
A|----------------|----------------|----------------|----------------------|
E|----------------|----------------|----------------|----------------------|

Interlude:

G|----------------|----------------|----------------|--------------------|
D|----------------|----------------|----------------|--------------------|
A|0--0-2--2-0-----|----------------|-----2--2-------|--------------------|
E|----------------|3--3-5--5-3-----|0--0------0-----|1--1-/13-13-13-13---|

G|----------------|----------------|----------------|--------------|
D|----------------|----------------|----------------|--------------|
A|0--0-2--2-0-----|----------------|-----2--2-------|--------------|
E|----------------|3--3-5--5-3-----|0--0------0-----|1--1-11-1-1---|

Chorus3/Outro:

G|---11---14-------11-|--14--------11------|---16------14----------|---11-14---16----14---|
D|12------------12----|---------12----12---|12------12------12/14--|14------------14------|
A|--------------------|--------------------|-----------------------|----------------------|
E|--------------------|--------------------|-----------------------|----------------------|

G|---11---14-------11-|--14--------11------|---16------14----------|---11-14---16-14------|
D|12------------12----|---------12----12---|12------12------12/14--|14---------------14---|
A|--------------------|--------------------|-----------------------|----------------------|
E|--------------------|--------------------|-----------------------|----------------------|

G|---11---14-------11-|--14-----12-11------|---16------14----------|---11-14---14-16-14---|
D|12------------12----|---------------12---|12------12------12/14--|14--------------------|
A|--------------------|--------------------|-----------------------|----------------------|
E|--------------------|--------------------|-----------------------|----------------------|

G|---11---14-------11-|--14--------11------|---16------14----------|---11-14---14-16-14---|
D|12------------12----|---------12----12---|12------12------12/14--|14--------------------|
A|--------------------|--------------------|-----------------------|----------------------|x3
E|--------------------|--------------------|-----------------------|----------------------|

G|---11---14-------11-|--14--11-12--11-12--|---16------14----------|---11-14---14-16-14---|
D|12------------12----|--------------------|12------12------12/14--|14--------------------|
A|--------------------|--------------------|-----------------------|----------------------|x2
E|--------------------|--------------------|-----------------------|----------------------|

G|--------------------|
D|0-------------------|
A|--------------------|
E|--------------------|

Note - There may be even more variations of the above, but for conveinance's sake I've
       cut 1 or 2 of them out. (most of them are just slightly different rythmic changes.)

If there are any errors etc. within this Tab please notify
me about them.. email me at aaronpaulreeves@yahoo.co.uk

  development and support by
dmitry ivanov