rock
 
|tablatures   |lyrics   |discussion forums   |more tabs @ XGuitar.com

Red Hot Chili Peppers tabs

The Greeting Song guitar tab

From: John Sixkiller 
Artist:	Red Hot Chili Peppers
Album:	Blood Sugar Sex Magik
Song:	The Greeting Song
guitar tabs and/or chords

Okay, here goes:

Intro

E----------------------------------------|
B--2--2-2-2--5-5-5-5--2--2-2-2--5-5-5-5--|
G--2--2-2-2--5-5-5-5--2--2-2-2--5-5-5-5--|
D--2--2-2-2--5-5-5-5--2--2-2-2--5-5-5-5--|
A------------3-3-3-3------------3-3-3-3--|
E----------------------------------------|
*ALSO AFTER EVERY 4X VERSE IS REPEATED, AT END OF RIFF:
E-----|
B-----|
G-----|
D-----|
A---)-|
E--5--|

Verse, same as intro.

Bridge:
E-------------------|
B--4--7--9--10--11--|
G--4--7--9--10--11--|
D--4--7--9--10--11--|
A--2--5--7---8---9--|
E-------------------|

Chorus is the same as bridge, except when Anthony sings
"sound of music" you play:
E--------------------|
B--------------------|
G--------------------|
D--------------------|
A--------------------|
E--3--5-5-5-5-5-5-5--|

2ND chorus is:               
E-------------------------------------------------------|
B--10--10--10-10-10---13--13---15-15-15-15-15-15-15-15--|
G---9---9---9--9--9---11--11---13-13-13-13-13-13-13-13--|
D---7---7---7--7--7---10--10---12-12-12-12-12-12-12-12--|
A-------------------------------------------------------|
E-------------------------------------------------------|

You should be able to piece it together from here, I have the solo written
down somewhere and I'll add it when I find it, so I guess I should clean my room.
  development and support by
dmitry ivanov