rock
 
|tablatures   |lyrics   |discussion forums   |more tabs @ XGuitar.com

Red Hot Chili Peppers tabs

The Brothers Cup guitar tab

From: "Avishay Drori" <avishay_d87@hotmail.com>
Subject: r/red_hot_chili_peppers/the_brothers_cup.tab
Date: Sat, 20 Jul 2002 13:10:10 +0000

Transcription By Avishay Drori

Song name - The Brothers Cup
Artist - Red Hot Chili Peppers
Album - Freaky Styley

A really great song
________________________________________________________
VerseIntro



E-10---8--------------------------------|
B--7--10--------------------------------|
G--7---7--------5-x-x-x-x-x-7-5---------|
D--------------------------------8-8-5--|
A----------3-x--------------------------|
E---------------------------------------|


E-10---8-----------------------------------|
B--7--10-----------------------------------|
G--7---7-------5-x-x-x-x-x-5-5-x-x-5-5-x-x-|
D------------------------------------------|
A----------3-x-----------------------------|
E------------------------------------------|

_______________________________________________________
Chorus  2X

E----------------------------------|
B----------------------------------|
G----------------------------------|
D-12-10-8----------12-10-8-10-10-8-|
A---------10-8-10------------------|
E----------------------------------|

_______________________________________________________
Bridge (1:48)


=================================================
Play this part 4 times
E--------------------------------|
B--------------------------------|
G---7-7-5----------------7-7 5h7-|
D--------------------------------|
A--------------------------------|
E--------------------------------|
=================================================

=================================================
Play this part 2 times  (starts at 2:06)
E-------------------------------------------|
B-------------------------------------------|
G--7-x-7-7-5-5-x--7-x-7-x-7-x-5-x-5h7h5h7-x-|
D-------------------------------------------|
A-------------------------------------------|
E-------------------------------------------|
=================================================
=================================================
Play this part 4 times  (starts at 2:15)
E--7----------------------|
B--8--6b------------------|
G--------7---5-7--5-7---7-|
D-------------------------|
A-------------------------|
E-------------------------|
=================================================


_______________________________________________________

b = bend
h = hammer down

Music By Anthony Kiedis, Micheal Balzary, Hillel Slovak, and Cliff Martinez


Transcription By Avishay Drori



Enjoy...
  development and support by
dmitry ivanov