rock
 
|tablatures   |lyrics   |discussion forums   |more tabs @ XGuitar.com

Red Hot Chili Peppers tabs

Shallow Be Thy Game guitar tab

Red Hot Chili Peppers - Shallow be thy game
Tabbed By: leeloo's guitar licks n kicks
Email: leeloo2kis@hotmail.com

Tuning: Standard (E A D G B E)

This is only the basic structure as me and a few freinds play it (thats you henry)
so enjoy e-mail me at leeloo2kis@hotmail.com with comments and/or corrections.

Intro (after feedback volume swell)

E|---------------------------||
B|--------------101010101010-||  Play this to the rythem of the bass or constant up
G|-9-9-9-9-9-9--x-x-x-x-x-x--||  and down strokes.
D|-x-x-x-x-x-x--7-7-7-7-7-7--||
A|-7-7-7-7-7-7---------------||  Repeat 4 times. on the second part of the 4th extend by half a bar.
E|---------------------------||


                                                          the quick bit bellow is just of the minor/
                                                          pentatonic scale so impro is always good.
E|----x-x---x-x---------x-x---x-x--------x-x---x-x------------------------------------||
B|----x-x-7-x-x-12------x-x-7-x-x-12-----x-x-7-x-x-12---------------------------------||
G|----x-x-7-x-x-12------x-x-7-x-x-12-----x-x-7-x-x-12---------------------------------||
D|----x-x-6-x-x-12------x-x-6-x-x-12-----x-x-6-x-x-12------5-7-7-5--------------------||
A|----x-x-7-x-x-----5h7-x-x-7-x-x--------x-x-7-x-x------5h7--------7-5----------------||
E|-3p0--------------------------------3p0------------------------------5--------------||


the part above is repeated 4 times in the first verse
then comes a fast bit:

E|-------------------------------------|| This little riff is repeated a few times until
B|--14b16-12h14b16-12------------------|| verse riff comes in, there is also another guitar
G|-------------------14-12-------------|| doing something similar with a wah pedal.
D|-------------------------------------|| if you want to improvise use the top half of either the
A|-------------------------------------|| E mixolidian scale or E dorian/Eminor
E|-------------------------------------||

the second verse is the same as the first verse except the vocals come in straight away.
then comes the chorus:

"you'll never burn me..........................................
E|------------------|------------------|5-5-5-5-5-5-------|5-5-5-5-5-5-------||
B|------------------|8-8-8-8-8-8-------|x-x-x-x-x-x-------|x-x-x-x-x-x-------||
G|9-9-9-9-9-9-------|x-x-x-x-x-x-------|x-x-x-x-x-x-------|x-x-x-x-x-x-------||  X2
D|x-x-x-x-x-x-------|x-x-x-x-x-x-------|x-x-x-x-x-x-------|x-x-x-x-x-x-------||
A|7-7-7-7-7-7-------|5-5-5-5-5-5-------|4-4-4-4-4-4-------|4-4-4-4-4-4-------||
E|------------------|------------------|------------------|------------------||

Then comes another verse and chorus.

After the second chorus there is a bit there anthony doesn't sing during this the guitar and bass
are playing the same riff as the introduction.

then another verse is played during which Mr Navarro solos. im not posting the solo because you sould be
able to improvise it. (if you are really desparate for more accurate solo riffs and tabs mail me!)


after the solo there is i think another verse and another 2choruses one after the other.
and the song ends on a really middly bit on the guitar so again improvise so it or stick on the
cd!!

there is only one other riff which features instead of the fast bit in E
which is:


E|------------------|| when you drop from the single not of g to the Emajor
B|------------------|| chord pull back with the Wah pedal.
G|-1--1--1----------||
D|-2--2--2----------||
A|-2--2--2----------||
E|3--3--3-----------||

ok so things to bear in mind:
1)Navarro is a really good guitarist so you probably won't sound as good as him!
2)in the actual recording there are anything up to 5 guitars at once so playing it
  exactly like him live will be hard!
3)play it your own way because anyone who wants to hear it perfectly can stick
  on the cd!

so Enjoy please mail me at: leeloo2kis@hotmail.com with any comments or suggestions
or questions, and rate this tab.
  development and support by
dmitry ivanov