rock
 
|tablatures   |lyrics   |discussion forums   |more tabs @ XGuitar.com

Red Hot Chili Peppers tabs

Sexy Mexican Maid bass tab

Sexy Mexican Maid - Bass Tab
By the Red Hot Chili Peppers
>From the album Mother's Milk
Tabbed by Otto Brandt (osmo_brand@hotmail.com)

Intro and verse
G |---------------------|---------------------|
D |---------------------|--------5-7-7-5---5--|
A |--------5-7-7-5------|--0-5-7---------7----|
E |--0-5-7---------7-5--|---------------------|

G |---------------------|----------------------|
D |---------------------|--------5-0---5-0---5-|
A |--------5-7-7-5------|--0-5-7-----7-----7---|
E |--0-5-7---------7-5--|----------------------|

Chorus 4 times then
G |---------|---------| |-----------|
D |----9p7--|----9p7--| |-----------|
A |---------|---------| |-----------|
E |--7------|--7------| |--7-7-7-7--|

Interlude and guitar solo 
G |-----------------------------|
D |-----------------5-----------|
A |--7-5-7-5--7-5-7----7-5-7-5--|
E |-----------------------------|

Interlude in the very end
G |--------------------------------------|
D |-----------------5--------------------|
A |--7-5-7-5--7-5-7----7-5-7-5-----------|
E |----------------------------7-6-5-3---|


If you have any comments, corrections or additions, please mail me.
  development and support by
dmitry ivanov