rock
 
|tablatures   |lyrics   |discussion forums   |more tabs @ XGuitar.com

Red Hot Chili Peppers tabs

Sex Rap guitar tab

Author/Artist: Red Hot Chili Peppers
Title: Sex Rap
Album: Freaky Styley
Transcribed by: Greenie 12


Drum Intro


Verse: The C on the A-string is really played by the bass.
                             
E-||----------------------------|----------------------------|
B-||----------------------------|----------------------------|
G-||----------------------------|----------------------------|
D-||----------------------------|----------------------------|
A-||-------------------------3--|-------------------------3--|
E-||--5-5--5-3-----5-5--5-5-----|--5-5--5-3-----5-5--5-5-----|

E-|---------------------------|--------------------------||-
B-|---------------------------|--------------x--7--x--6--||-
G-|---------------------------|--------------x--6--x--5--||-
D-|---------------------------|--------------x--5--x--4--||-
A-|------------------------3--|--------------x--6--x--5--||-
E-|--5-5--5-3----5-5--5-5-----|--5-5--5-3----------------||- x 4

Chorus:

E-||-------------------------------------------||-
B-||----8--x-x--8--x-x--8-8--8--x-x--8----8----||-
G-||----7--x-x--7--x-x--7-7--7--x-x--7----7----||-
D-||----6--x-x--6--x-x--6-6--6--x-x--6----6----||-
A-||----7--x-x--7--x-x--7-7--7--x-x--7----7----||-
E-||-------------------------------------------||- x 2

Verse:

E-||----------------------------|----------------------------|
B-||----------------------------|----------------------------|
G-||----------------------------|----------------------------|
D-||----------------------------|----------------------------|
A-||-------------------------3--|-------------------------3--|
E-||--5-5--5-3-----5-5--5-5-----|--5-5--5-3-----5-5--5-5-----|

E-|---------------------------|--------------------------||-
B-|---------------------------|--------------x--7--x--6--||-
G-|---------------------------|--------------x--6--x--5--||-
D-|---------------------------|--------------x--5--x--4--||-
A-|------------------------3--|--------------x--6--x--5--||-
E-|--5-5--5-3----5-5--5-5-----|--5-5--5-3----------------||- x 4

Chorus:

E-||-------------------------------------------||-
B-||----8--x-x--8--x-x--8-8--8--x-x--8----8----||-
G-||----7--x-x--7--x-x--7-7--7--x-x--7----7----||-
D-||----6--x-x--6--x-x--6-6--6--x-x--6----6----||-
A-||----7--x-x--7--x-x--7-7--7--x-x--7----7----||-
E-||-------------------------------------------||- x 2

Guitar Solo: With Wah-Wah

Outro:

E-||---------------------------|---------------------------|
B-||---------------------------|---------------------------|
G-||---------------------------|---------------------------|
D-||---------------------------|---------------------------|
A-||------------------------3--|------------------------3--|
E-||--5-5--5-3----5-5--5-5-----|--5-5--5-3----5-5--5-5-----|

E-|---------------------------|---------------------------|
B-|---------------------------|---------------x--7--x--6--|
G-|---------------------------|---------------x--6--x--5--|
D-|---------------------------|---------------x--5--x--4--|
A-|------------------------3--|---------------x--6--x--5--|
E-|--5-5--5-3----5-5--5-5-----|--5-5--5-3-----------------|

E-|---------------------------|---------------------------||-
B-|---------------------------|---------------------------||-
G-|---------------------------|---------------------------||-
D-|---------------------------|---------------------------||-
A-|------------------------3--|------------------------3--||-
E-|--5-5--5-3----5-5--5-5-----|--5-5--5-3----5-5--5-5-----||-

  development and support by
dmitry ivanov