rock
 
|tablatures   |lyrics   |discussion forums   |more tabs @ XGuitar.com

Red Hot Chili Peppers tabs

Scar Tissue bass tab

Artist:Red Hot Chili Peppers
Song:Scar Tissue
Album:Californication
Tabbed by:Brian
I have to give credit to Robert Petersson (mr.schh@post.netlink.se)for the main body of the song.
Here It is for the first time..... The whole scar Tissue song Including The intro.
Any corrections/comments/concerns/questions/querys e-mail me at bassman1@apexmail.com
The timing might by a little off on the intro But it's easy to figure out.It sounds 
good when i play it.

Intro
G[--14---14-14-14--------------------14-14-14-14-14-14--------------------------]
D[---------------14/15-15-15-15-15-14-----------------14-15 -->slide down on this string then go into the song           
A[------------------------------------------------------------------------------]
E[------------------------------------------------------------------------------]

Verse 1
G|-------------------------------------|---------------------------------------|
D|-------------------------------------|---------------------------------------|
A|--8-8------------------------8-------|--8-8------------------------x0-3-5-3--|
E|------5-5-x8-8/10--10--10-10---10-8--|------5-5-x8-8/10--10--10-10----------|

G|-------------------------------------| (x7)
D|-------------------------------------|
A|--8-8------------------------8-------|
E|------5-5-x8-8/10--10--10-10---10-8--|

Solo Part 1
G|--19--19--19-19-17-14--14--14-14------------------------------------|
D|------------------------------------14----14--14----14----15--------|
A|---------------------------------15-----15--15----15---17----17-19--|
E|--------------------------------------------------------------------|

Verse 2
G|-------------------------------------|---------------------------------------| 
D|-------------------------------------|---------------------------------------|
A|--8-8------------------------8-------|--8-8------------------------x0-3-5-3--|
E|------5-5-x8-8/10--10--10-10---10-8--|------5-5-x8-8/10--10--10-10-----------|

G|-------------------------------------| (x2)
D|-------------------------------------|
A|--8-8------------------------8-------|
E|------5-5-x8-8/10--10--10-10---10-8--|

G|--------------------------------------| 
D|--------------------------------------|
A|--8-8---------------------------------|
E|------5-5-x8-8/10--10--10-10--13--13--|

No Drums Part of Verse 2
G|--------------------------------------|-----------------------------------|
D|--------------------------------------|---------------------/12-10-7------|
A|--8-8------------------------x0-3-5-3-|--8-8-------------------------x10--|
E|------5-5-x8-8/10--10--10-10----------|------5-5-x8-8/10-10---------------|

Drums Back
G|-------------------------------------| (x2)
D|-------------------------------------|
A|--8-8------------------------8-------|
E|------5-5-x8-8/10--10--10-10---10-8--|

G|-------------------------------|
D|-------------------------------|
A|--8-8--------------------------|
E|------5-5-x8-8/10--10--13--13--|

Solo Part 2
G|--19--19--19-19-17-14--14--14-14---------------------------------------|
D|------------------------------------14----14--14----14-----------------|
A|---------------------------------15-----15--15----15---17-17-17-17-17--|
E|-----------------------------------------------------------------------|

G|--19--19--19-21-17-14--14-14-17-17/19-17-14-17------------------------------------|
D|--------------------------------------------------14---14--14----14---------------|
A|-----------------------------------------------15----15--15---15----17-17--17-19--|
E|----------------------------------------------------------------------------------|

Verse 3
G|-------------------------------------| (x4)
D|-------------------------------------|
A|--8-8------------------------8-------|
E|------5-5-x8-8/10--10--10-10---10-8--|

G|--------------------------------|
D|--------------------------------|
A|--8-8---------------------------|
E|------5-5-x8-8/10--10--13-13-13-|

Solo Part 3 / Ending (Solo Part 2 Twice with som variations)

I have to give credit to Robert Petersson (mr.schh@post.netlink.se)for the main body of the song.
  development and support by
dmitry ivanov