rock
 
|tablatures   |lyrics   |discussion forums   |more tabs @ XGuitar.com

Red Hot Chili Peppers tabs

Right On Time guitar tab

RIGHT ON TIME

from "Californication"
Music by KiedisFleaFruscianteSmith
Warner Bros. Music 1999


Transcribed by: Vedran Rasic
Email: moron_brother@hotmail.com
ICQ:   14398518

  h - hammer on
  p - pull off
  b - bend 
  r - release bend
  x - muted note (or Rake)
  / - slide up
  \ - slide down
  v or ~ - vibrato 
  t - right hand tap (eg. t10)
  ^ - Harmonic (eg. ^12)


-|-12x12x-12x--12---12x12x-12-xx-|--------------------------------------------
-|-12x12x-12x--12---12x12x-12-xx-|--------------------------------------------
-|--9x-9x--9x---9----9x-9x--9-xx-|--------------------------------------------
-|-------------------------------|--------------------------------------------
-|-------------------------------|--------------------------------------------
-|-------------------------------|--------------------------------------------
 Verse (Just hit this riffs through the verse)                                

-|--9-------7----9-----|--14---12---12---14-------|-14--12--12--17-17-17-17-|-
-|--9---9---7---10-----|--14---14---12---15-------|-14--14--12--15-15-15-15-|-
-|--9---9---8---11-----|--14---14---13---16-------|-14--14--13--14-14-14-14-|-
-|-11---9---9---11-----|--16---14---14---16-------|-16--14--14--16-16-16-16-|-
-|-11---7---9----9-----|--16---12---14---14-------|-16--12--14--14-14-14-14-|-
-|--9-------7----------|--14--------12------------|-14------12--------------|-
 Chorus              4x (2nd part of 2nd chorus)3x (4th time play this)       

-|--9------------------9--9--9--9--9--9--9--9--9--9--9|-12-12x-x12--12-12---|-
-|--9-------------------------------------------------|-12-12x-x12--12-12---|-
-|--9-------------------------------------------------|--9--9x-x-9---9--9---|-
-|-11-------------------------------------------------|---------------------|-
-|-11-------------------------------------------------|---------------------|-
-|--9-------------------------------------------------|---------------------|-
 (after 3nd verse)                                     (end)                  


  development and support by
dmitry ivanov