rock
 
|tablatures   |lyrics   |discussion forums   |more tabs @ XGuitar.com

Red Hot Chili Peppers tabs

Purple Stain guitar tab

PURPLE STAIN BY THE RED HOT CHILI PEPPERS
THIS MAY BE CLOSE TO IT...IM NOT QUITE SURE...WORK THE TIMING YOURSELF...ITS A
NICE SONG
TABBED BY CZA
THE VERSE RIFF

e:----------------------------------------------------------|
B:----------------------------------------------------------|
G:----------------------------------------------------------|
D:-----------------------5-5---5-5--------------------------|
A:----------------------------------------------------------|
E:----------------12\(0)------------------------------------|

THE PRE_CHORUS RIFF

e:-------------------------------|
B:-------------------------------|
G:-------------------------------|PLAY THIS TWICE I BELIEVE
D:-------5--7--7-------5--7--7---|
A:----7-------------7------------|

G:-------------------------------|
D:-------5--7--7-------5--7--7---|THEN PLAY THIS TWICE....ITS WEIRD BUT I THINK IT WORKS
A:----7-------------7------------|



PLAY THIS CHORUS RIFF TWICE


e:------------8--8------------8--8--|------------8--8-----------------|
B:------------8--8------------8--8--|------------8--8-----------------|
G:----------------------------------|---------------------5-----------|
D:------5--7------------5--7--------|------5--7--------------7--5-----|
A:---7---------------7--------------|---7-----------------------------|
E:----------------------------------|---------------------------------|


SOMETIMES YOU HEAR SOMETHING CRAZY LIKE THIS

e:-----------------------------------|
B:----------------8\-----------------|
G:----------------7\-----------------|
D:---5------------6\------------5----|
A:-----7-7-7-5-7--7\----5-7-7-7---7-7|
E:-----------------------------------|
  development and support by
dmitry ivanov