rock
 
|tablatures   |lyrics   |discussion forums   |more tabs @ XGuitar.com

Red Hot Chili Peppers tabs

Police Helicopter guitar tab

Author/Artist: Red Hot Chili Peppers
Title: Police Helicopter (Demo Version)
Album: Out In L.A.
Transcribed by: Greenie12
Email: onkel44@hotmail.com

This the demo version of the song.


Riff 1:

     G7#9                              G7#9                        x2
e-|---------------------------------|---------------------------------|-
B-|--11--11-11-11-------------------|--11--11-11-11-------------------|-
G-|--10--10-10-10-------------------|--10--10-10-10-------------------|-
D-|---9---9--9--9-------------8--8--|---9---9--9--9-------------8--8--|-
A-|--10--10-10-10--7-8h10-10--------|--10--10-10-10--7-8h10-10--------|-
E-|---------------------------------|---------------------------------|- 
                                                                              
Riff 2:

     G7#9                 G7#9           x2
e-|--------------------|--------------------|-
B-|--11--11-11-11--11--|--11--11-11-11--11--|-
G-|--10--10-10-10--10--|--10--10-10-10--10--|-
D-|---9---9--9--9---9--|---9---9--9--9---9--|-
A-|--10--10-10-10--10--|--10--10-10-10--10--|-
E-|--------------------|--------------------|-
                                                                              
Outro: Aah!......

     G7#9
e-|-------------------------|-
B-|--11-11-11-11-11-11--11--|-
G-|--10-10-10-10-10-10--10--|-
D-|---9--9--9--9--9--9---9--|-
A-|--10-10-10-10-10-10--10--|-
E-|-------------------------|-
  development and support by
dmitry ivanov