rock
 
|tablatures   |lyrics   |discussion forums   |more tabs @ XGuitar.com

Red Hot Chili Peppers tabs

Parellel Universe bass tab

Parallel Universe
Red Hot Chili Peppers
From Californication
Tabbed June 24
tabbed by Karl Kieser
kkarl@hotmail.com

Intro                 Verse
G|-----------------|-----------------|-----------------|----------------
D|-----------------|-----------------|-----------------|----------------
A|-----------------|-----------------|-----------------|----------------
E|-x-x-x-x-x-x-x-x-|-8-8-8-8-8-8-8-8-|-8-8-8-8-8-8-8-8-|-6-6-6-6-6-6-6-6

G|-----------------|-----------------|-----------------|----------------
D|-----------------|-----------------|-----------------|----------------
A|-----------------|-5-5-5-5-5-5-5-5-|-6-6-6-6-6-6-6-6-|----------------
E|-6-6-6-6-6-6-6-6-|-----------------|-----------------|-3-3-3-3-3-3-3-3
                                      Chorus
G|-----------------|-----------------|-5-5-5-5-5-5-5-5-|-8-8-8-8-8-8-8-8
D|-5-5-5-5-3-3-3-3-|-1-1-1-1-0-0-0-0-|-----------------|----------------
A|-----------------|-----------------|-----------------|----------------
E|-----------------|-----------------|-----------------|----------------
                                      Interlude
G|-----------------|-----------------|-5-5-5-------1-1-1------|---------
D|-5-5-5-5-5-5-5-5-|-5-5-5-5-5-5-5-5-|-------5-5-5------3-3-3-|---------
A|-----------------|-----------------|------------------------|---------
E|-----------------|-----------------|------------------------|---------

This song is very easy. And also very redundant.
Here is the sequencing:
Intro     1x
Verse     3x
Chorus    2x
Verse     2x
Chorus    4x
Interlude 8x
Verse     2x
Chorus    4x
Verse     4x

This is best viewed in couiere new formated text.

Enjoy!
Karl Kieser
kkarl@hotmail.com
  development and support by
dmitry ivanov