rock
 
|tablatures   |lyrics   |discussion forums   |more tabs @ XGuitar.com

Red Hot Chili Peppers tabs

Otherside bass tab

Song: Otherside
Artist: Red Hot Chili Peppers
Album: Californication
Tabbed by: Spinder(spinder79@yahoo.com)

I do believe that this is the correct way to play it, the previous tab by Gregg Costa 
(costagreg@hotmail.com) and One Tonne Turtle bassist (http://onetonneturtle.cjb.net)
had the intro and chorus pretty much right, but the verse and bridge were a little off.

intro

G|------------------------------------------------
D|------------------------------------------------
A|------------------------3--3--3-3---------------
E|-5--5--5-3\--1--1--1-1------------0--3--3--3----

chorus

G|------------------------------------------------
D|------------------------------------------------
A|------------------------3--3--3-3------3--2-----
E|-5--5--5-3\--1--1--1-1------------0-3--------0--

G|------------------------------------------------
D|----------------------------------------5-------
A|------------------------3--3--3-3---------------
E|-5--5--5-3\--1--1-1-1/3------------0-3-----3/4--

G|------------------------------------------------
D|------------------------------------------------
A|------------------------3--3--3-3---------------
E|-5--5--5-3\--1--1--1-1------------0-3-3-3--3-3-3

Verse

G|------------------------------------------------
D|------------------------------------------------
A|-0----0--0----0--0--0--/19---19--19---19--19\---
E|------------------------------------------------

G|------------------------------------------------
D|------------------------------------------------
A|-0--0--0--0---0--0--0--/19----------------------
E|------------------------------19--19---19--19\--

G|------------------------------------------------
D|------------------------------------------------
A|-0----0--0----0--0--0--/19---19--19---19--19----
E|---------------------------------------------0--
                                  
G|------------------------------------------------
D|------------------------------------------------
A|--------------------------------------------0000
E|--3--------------------5------------------------

G|------------------------------------------------
D|------------------------------------------------
A|-0----0--0----0--0--0--/19---19--19---19--19\---
E|------------------------------------------------

G|------------------------------------------------
D|------------------------------------------------
A|-0--0--0--0---0--0--0--/19----------------------
E|------------------------------19--19---19--19\--

G|------------------------------------------------
D|------------------------------------------------
A|-0----0--0----0--0--0--/19---19--19---19--19----
E|---------------------------------------------0--

G|------------------------------------------------
D|--------------------------5-----------5---------
A|------------------------------------------------
E|--3---5----3---5-------3----3---3-3-3----3-3--3-

G|------------------------------------------------
D|-----------7--7--7----7---7---7---7-------------
A|--------------------7---7---7---7---------------
E|--5---5-----------------------------------------

Chorus

G|-----------------------------------------------------------------
D|-----------------------------------------------------------------
A|----------------------------------3--3-3---3-3-------------------
E|-5---5---5--3\---1--1-1---1-1-1/3--------------0-3--3--3---3-4--4

G|-----------------------------------------------------------------
D|-----------------------------------------------------------------
A|----------------------------------3--3-3--5-3-3-----3--2--2------
E|-5--5-5-5-5-3\---1--1-1---1-1-1/3----------------3----------3-3-4
                                                   
G|-----------------------------------------------------------------
D|-----------------------------------------------------------------
A|----------------------------------3---3-3---3-3------------------
E|-5--5-5--5-3-3-3-1--1-1---1-1-1/3---------------0--3--3--333--3-3

Repeat Verse

Chorus

G|-----------------------------------------------------------------
D|-----------------------------------------------------------------
A|----------------------------------3--3-3---3-3-------------3--2--
E|-5--5-5-5-5-3\---1--1-1---1-1-1/3--------------0--3--3--3-------3

G|-----------------------------------------------------------------
D|-----------------------------------------------------------------
A|----------------------------------3--3-3---3-3--------3--3-2--2-5
E|-5--5-5-5-5-3\---1--1-1---1-1-1----------------0--3--------------

G|-----------------------------------------------------------------
D|-----------------------------------------------------5------5----
A|----------------------------------3---3-3---3-3------------------
E|-5--5-5--5-3-3-3-1--1-1---1-1-1/3---------------0--3---3--3---3-3

Bridge

G|---------------------------------------------------------------------
D|---------------------------------------------------------------------
A|-----7---5--7-------7---5--7--------------------------------10--9----
E|-0--------------0-------------0--5--7--8---8---7--8---8---10-------10

G|-------------------------------------------------------------------------
D|-------------------------------------------------------------------------
A|-----7---5--7-------7---5--7------------------------------10-9-7-9-10-7--
E|-0-0------------0-------------0-0-5--7--8---8---7--8---8---------------10

G|---------------------------------------------------------------------
D|---------------------------------------------------------------------
A|-----7---5--7-------7---5--7--------------------------------10--9----
E|-0-0---0--------0-------------0--5--7--8---8---7--8---8---10-------10

G|----------------------------------------------------------------------
D|----------------------------------------------------------------------
A|-----7---5--7-----7--7---5--7--------------------------------10--9----
E|-0--------------0------0-------0--5--7--8---8---7--8---8---10-------10

Outro

G|-------------------------------------------------------------------
D|-------------------------------------------------------------------
A|-----------------------------------3-3-3-3-3-3-3-------------3-2-2-
E|-5--5-5---5-3---1-1-1-1---1-1-1-1----------------0--3--3-333------3

G|-------------------------------------------------------------------
D|-------------------------------------------------------------------
A|----------------------------------3---3-3-3-3-3--------------------
E|-5--5-5---5-3--\1-1-1-1-1-1-1-1------------------0---3--3-3-3-3-3-3

G|-------------------------------------------------------------------
D|-----------------3--3-3---3-5-3------------------------------------
A|---------------------------------3-3-3---5-3--------3--3-2--2------
E|-5--5-5---5-5-5------------------------------0--3-------------3-3-3

G|-------------------------------------------------------------------
D|--------------------------------------------------------5-5-5------
A|-------------------------------------3---3-3---3-3-----------------
E|-5--5-5---5-3-3-3-\1--1-1---1-1-1/3----------------0--3-------3-3-3

G|-------------------------------------------------------------------
D|-------------------------------------------------------------------
A|----------------------------------------3--3-3-3-3-3---------------
E|-5---5--5--5--5-3\---1--1--1--1---1-1/3--------------0--3-3-3-3-0-3
                                                                          B   
G|-------------------------------------------5-5-5-5--5-5---------------------
D|-----------------------3--3-3-3-3-3-3-3-3----------------0-5-5--5-5---------
A|-----------------3--5------------------------------------------------0--3--0
E|-5---5--5--5--5-------------------------------------------------------------
  development and support by
dmitry ivanov