rock
 
|tablatures   |lyrics   |discussion forums   |more tabs @ XGuitar.com

Red Hot Chili Peppers tabs

On Mercury guitar tab

Band: Red Hot Chili Peppers
Song: On Mercury
Album: By The Way

Standard Tuning (EADGBe)

Verse


e.-----------------------------------------------------------------------------------
B.-----------------------------------------------------------------------------------
G.-----------------------------------------------------------------------------------
D.-----9-x--x-9----12---11---9----11--11----7--x-x-7---9--11--12--11--11-----
A.-----9-x--x-9----10---9----7----9----9----7--x-x-7---7---9--10--9---9-------
E.-----7-x--x-7-----------------------------5-x-x-5-----------------------------


Pre-Chorus

e.-----------------------------------------------------------------------
B.-----------------------------------------------------------------------
G.---------------------------------------9---------------------
D.---5x-x-5---5--7-8---7-7----4-x-x-4----9-(6x for that chord(
A.---5x-x-5---3--5-6---5-5----4-x-x-4----7---------------------
E.---3x-x-3-------------------2-x-x-2-------------------------


Chorus


e.--------------------------------------------
B.-------------------------------------------
G.-------------7-------------9-------------
D.-----9-------7------7------9--------------
A.-----9-------5------7------7-------------
E------7--- ----------5--------------------

Those are the correct cords for the chorus just put rhythm the rhythm to it by listening to the songs.

Verse (6x)       C(4x)   I hope u like this tab. I think the Pre chorus is right its hard to 
PRE(2x)           V(4x)   hear cuz of the horns. Pleez make corrections if u think 
C(4x)                C(8x)    differently. PEACE.~~~Matt
V(5x)
PRE(4x)
  development and support by
dmitry ivanov