rock
 
|tablatures   |lyrics   |discussion forums   |more tabs @ XGuitar.com

Red Hot Chili Peppers tabs

Mommy Wheres Daddy guitar tab

Band: Red Hot Chili Peppers
Song: Mommy Where's Daddy
Album: The Red Hot Chili Peppers
Year: 1984
Tab by: JoŁo Coutinho
E-mail: frusciante@clix.pt

  INTRO

The intro part sounds a little strange but in an
electric guitar it's something like this:

e|------------------------|----------------------|
B|--18--------------------|----------------------|
G|--14-----17---16--------|--------10-12bp10-----|
D|--12----------12--------|--10/12---------------|
A|------------------------|----------------------|
E|------------------------|----------------------|

e|-----------------------------------------------|
B|-----------------------------------------------|
G|-----------------------------------------------|
D|--10--12b--10----------------------------------|
A|---------------10b----10b--10--5--3-3-3--3-3h5-|
E|-----------------------------------------------|

  RIFF

e|--7-7-7-7--7-7-7-7--|
B|--6-6-6-6--6-6-6-6--|
G|--7-7-7-7--7-7-7-7--|
D|--------------------|
A|--------------------|
E|--------------------|


  END

The final part is similar to the intro.
  development and support by
dmitry ivanov