rock
 
|tablatures   |lyrics   |discussion forums   |more tabs @ XGuitar.com

Red Hot Chili Peppers tabs

Minor Thing guitar tab

Artist : Red hot Chili Peppers
Title  : Minor Thing
Album  : By The Way
From   : Craig donovan
E-mail : craig.donovan@ntlworld.com

MINOR THING

Verse 1  x4

e:-2-2-2-2-2-2-2-2-2-2-2-2-2-2-2-2-2-2-2-x--5-5-5-5-5-5-5-5-5-5-5-5-5-9-9-9-9-7-7-7-]
b:-5-5-5-5-5-5-5-5-5-5-5-5-5-5-5-5-5-5-5-9--7-7-7-7-7-7-7-7-7-7-7-7-7-5-5-5-5-5-5-5-]
g:-2-2-2-2-2-2-2-2-2-2-2-2-2-2-2-2-2-2-2-9--7-7-7-7-7-7-7-7-7-7-7-7-7-7-7-7-7-7-7-7-]
d:-4-4-4-4-4-4-4-4-4-4-4-4-4-4-4-4-4-4-4-9--7-7-7-7-7-7-7-7-7-7-7-7-7-7-7-7-7-7-7-7-]
a:-4-4-4-4-4-4-4-4-4-4-4-4-4-4-4-4-4-4-4-7--5-5-5-5-5-5-5-5-5-5-5-5-5-5-5-5-5-5-5-5-]
E:-2-2-2-2-2-2-2-2-2-2-2-2-2-2-2-2-2-2-2-x--x-x-x-x-x-x-x-x-x-x-x-x-x-x-x-x-x-x-x-x-]

Pre Chorus
e:----9--9--9--9--9--9----12---14-14-14-14-14-14----]
b:----10-10-10-10-10-10---13---15-15-15-15-15-15----]
g:----9--9--9--9--9--9----13---14-14-14-14-14-14----]  x2
d:--------------------------------------------------]
a:--------------------------------------------------]
E:--------------------------------------------------]

Chorus  x2

e:----14-14-14-14-14-14-14-14-14-14-14-14-14-14-14-14--17-17-17-17--19-19-19-19----]
b:----14-14-14-14-14-14-14-14-14-14-14-14-14-14-14-14--17-17-17-17--19-19-19-19----]
g:---------------------------------------------------------------------------------]
d:---------------------------------------------------------------------------------]
a:---------------------------------------------------------------------------------]
E:---------------------------------------------------------------------------------]

Verse 2  x4

e:-2-2-2-2-2-2-2-2-2-2-2-2-2-2-2-2-2-2-2-x--5-5-5-5-5-5-5-5-5-5-5-5-5-9-9-9-9-7-7-7-]
b:-5-5-5-5-5-5-5-5-5-5-5-5-5-5-5-5-5-5-5-9--7-7-7-7-7-7-7-7-7-7-7-7-7-5-5-5-5-5-5-5-]
g:-2-2-2-2-2-2-2-2-2-2-2-2-2-2-2-2-2-2-2-9--7-7-7-7-7-7-7-7-7-7-7-7-7-7-7-7-7-7-7-7-]
d:-4-4-4-4-4-4-4-4-4-4-4-4-4-4-4-4-4-4-4-9--7-7-7-7-7-7-7-7-7-7-7-7-7-7-7-7-7-7-7-7-]
a:-4-4-4-4-4-4-4-4-4-4-4-4-4-4-4-4-4-4-4-7--5-5-5-5-5-5-5-5-5-5-5-5-5-5-5-5-5-5-5-5-]
E:-2-2-2-2-2-2-2-2-2-2-2-2-2-2-2-2-2-2-2-x--x-x-x-x-x-x-x-x-x-x-x-x-x-x-x-x-x-x-x-x-]

Pre Chorus
e:----9--9--9--9--9--9----12---14-14-14-14-14-14----]
b:----10-10-10-10-10-10---13---15-15-15-15-15-15----]
g:----9--9--9--9--9--9----13---14-14-14-14-14-14----]  x2
d:--------------------------------------------------]
a:--------------------------------------------------]
E:--------------------------------------------------]

Chorus  x4

e:----14-14-14-14-14-14-14-14-14-14-14-14-14-14-14-14--17-17-17-17--19-19-19-19----]
b:----14-14-14-14-14-14-14-14-14-14-14-14-14-14-14-14--17-17-17-17--19-19-19-19----]
g:---------------------------------------------------------------------------------]
d:---------------------------------------------------------------------------------]
a:---------------------------------------------------------------------------------]
E:---------------------------------------------------------------------------------]

1st Solo
e:----14----------------------------------------------------------
b:----------14--17-----------------------------14-----------------
g:------------------11b13r11--11-11-11-11-11-------13b14r13--11---
d:----------------------------------------------------------------
a:----------------------------------------------------------------
E:----------------------------------------------------------------

1st Solo
e:-----------------------------------------------------------------------]
b:--14--17----------------14---------------------------------------------]
g:-----------11b13r11-11------13b14r13--11---11/13\9--9/11\6--6--6--6----]
d:-----------------------------------------------------------------------]
a:-----------------------------------------------------------------------]
E:-----------------------------------------------------------------------]

Verse 3  x4

e:-2-2-2-2-2-2-2-2-2-2-2-2-2-2-2-2-2-2-2-x--5-5-5-5-5-5-5-5-5-5-5-5-5-9-9-9-9-7-7-7-]
b:-5-5-5-5-5-5-5-5-5-5-5-5-5-5-5-5-5-5-5-9--7-7-7-7-7-7-7-7-7-7-7-7-7-5-5-5-5-5-5-5-]
g:-2-2-2-2-2-2-2-2-2-2-2-2-2-2-2-2-2-2-2-9--7-7-7-7-7-7-7-7-7-7-7-7-7-7-7-7-7-7-7-7-]
d:-4-4-4-4-4-4-4-4-4-4-4-4-4-4-4-4-4-4-4-9--7-7-7-7-7-7-7-7-7-7-7-7-7-7-7-7-7-7-7-7-]
a:-4-4-4-4-4-4-4-4-4-4-4-4-4-4-4-4-4-4-4-7--5-5-5-5-5-5-5-5-5-5-5-5-5-5-5-5-5-5-5-5-]
E:-2-2-2-2-2-2-2-2-2-2-2-2-2-2-2-2-2-2-2-x--x-x-x-x-x-x-x-x-x-x-x-x-x-x-x-x-x-x-x-x-]

Last Solo  x2

e:----------------------------------------------------------------------------------]
b:----------------------------------------------------------------------------------]
g:-4----4--9---11--6------4----4--9---7--6-----4----4--9---11--6------4----9--7---6-]
d:----------------------------------------------------------------------------------]
a:----------------------------------------------------------------------------------]
E:----------------------------------------------------------------------------------]

  development and support by
dmitry ivanov