rock
 
|tablatures   |lyrics   |discussion forums   |more tabs @ XGuitar.com

Red Hot Chili Peppers tabs

Mellowship Slinky In B Major guitar tab

------------------------------------------------------------------
MELLOWSHIP SLINKY IN B MAJOR

Another great song.

-----------|----------------------|-----------|-------------------------|
-----------|----------------------|-----------|-------------------------|
-----------|----------------------|-----------|-------------------------|
-----------|----------------------|-----------|-------------------------|
-4-3-2-5-6-|-7-------5---7-7-5-7+-|-4-3-2-5-6-|-7-------5---7-------5---|
-----------|---0-0-7---7----------|-----------|---0-0-7---7---0-0-7---7-|

Repeat twice -- second time without the last four notes then:

-------------------
-12-10-9-10-9------
--------------7/---
-----------------9-
-------------------
-------------------

That basic riff repeats for a while.  Let's jump to my favorite part, the
solo (let the 0's ring here):

-0----0--0----0--0----0--0------0---0-----|
-0----0--0----0--0----0--0------0---0-----|
-4/7--7--7/9--9--9/11-11-11/14--14--14/16-|
------------------------------------------|
------------------------------------------|
------------------------------------------|

-----------------------------------------------------|
-----0--0------0--0------0--0------0--0------0--0--0-|
-(2)/4--0--(2)/4--0--(2)/4--0--(2)/4--0--(2)/4--0--0-|
-----------------------------------------------------|
-----------------------------------------------------|
-----------------------------------------------------|

Repeat those last two bars twice then these two twice:

-----------------------------------------|
-----------------------------------------|
-----------------------------------------|
-12+10---10+9-----9+7-----7+5-----5+7--7-|
-------0-------0-------0-------0---------|
-----------------------------------------|

-----------------------------------------|
-----------------------------------------|
-----------------------------------------|
-----------------------------------------|
-------0-------0-------0-------0-------0-|
-(3)/5---(3)/5---(3)/5---(3)/5---(3)/5---|


Mark Schnitzius
University of Central Florida
schnitzi@eola.cs.ucf.edu 
  development and support by
dmitry ivanov