rock
 
|tablatures   |lyrics   |discussion forums   |more tabs @ XGuitar.com

Red Hot Chili Peppers tabs

Me And My Friends guitar tab

Artist:Red Hot Chili Peppers
Album: The Uplift Mofo Party Plan
Song:Me & My Friends
Tabbed by Greenie 12

This is how i play it


Chorus:
                                          
e-|--8-----8-----8-----8---8-----|-----------------------|-
B-|--8-x-x-8-x-x-8-x-x-8-x-8-----|---------------5/7~~~--|-
G-|--6-x-x-6-x-x-6-x-x-6-x-6--x--|--7------------5/7~~~--|-
D-|--7-x-x-7-x-x-7-x-x-7-x-7--x--|--7------------5/7~~~--|-
A-|---------------------------x--|--5--------------------|-
E-|------------------------------|-----------------------|-

e-|--8-----8-----8-----8---8-----|-----------------------|-
B-|--8-x-x-8-x-x-8-x-x-8-x-8-----|-------------12h14~~~--|-
G-|--6-x-x-6-x-x-6-x-x-6-x-6--x--|--7----------12h14~~~--|-
D-|--7-x-x-7-x-x-7-x-x-7-x-7--x--|--7----------12h14~~~--|-
A-|---------------------------x--|--5--------------------|-
E-|------------------------------|-----------------------|-

e-|--8-----8-----8-----8---8-----|--------------------------|-
B-|--8-x-x-8-x-x-8-x-x-8-x-8-----|---------------5h7--5~~~--|-
G-|--6-x-x-6-x-x-6-x-x-6-x-6--x--|--7------------5h7--5~~~--|-
D-|--7-x-x-7-x-x-7-x-x-7-x-7--x--|--7-----------------------|-
A-|---------------------------x--|--5-----------------------|-
E-|------------------------------|--------------------------|-

e-|--8-----8-----8-----8---8-----|---------------------|----------------|-
B-|--8-x-x-8-x-x-8-x-x-8-x-8-----|---------------------|--5----7--------|-
G-|--6-x-x-6-x-x-6-x-x-6-x-6--x--|--7--------12/14~~~--|--5----7--------|-
D-|--7-x-x-7-x-x-7-x-x-7-x-7--x--|--7------------------|----------------|-
A-|---------------------------x--|--5------------------|----------------|-
E-|------------------------------|---------------------|----------------|-

Verse:

e-|-------------------------------------|
B-|-------------6--6-6--------6--6-6-6--|
G-|-------------5--5-5--------5--5-5-5--|
D-|-------------4--4-4--------4--4-4-4--|
A-|-------------5--5-5--------5--5-5-5--|
E-|----0-0-0-0----------0-0-0-----------|

Play this after the solo:

e-|------------------------------|------------|-----------|
B-|--8-x-x-8-x-x-8-x-x-8-x-8-----|------------|--5--------|
G-|*-7-x-x-7-x-x-7-x-x-7-x-7--x--|-----------*|--5--------|
D-|*-6-x-x-6-x-x-6-x-x-6-x-6--x--|--7--------*|--5--------|
A-|--7-x-x-7-x-x-7-x-x-7-x-7--x--|--7---------|-----------|
E-|------------------------------|--5---------|-----------|
              

Interlude:

e-|------------------------------------------|
B-|------------------------------------------|
G-|------------------------------------------|
D-|-------0-------0-------0-------0-------0--|
A-|--3/5-----3/5-----3/5-----3/5-----3/5-----|
E-|------------------------------------------|
  development and support by
dmitry ivanov