rock
 
|tablatures   |lyrics   |discussion forums   |more tabs @ XGuitar.com

Red Hot Chili Peppers tabs

Make You Feel Better bass tab

Artist: Red Hot Chili Peppers
Album: Stadium Arcadium –Mars
Song: Make You Feel Better
Tuning: Standard, low to high E,A,D,G
Tab by: punkrob
Verse :
G|--------------------------------------------|
D|--------------------------------------------|
A|----7----3----------7-----3-----------------|
E|-------7-----3---------7------3-------------|

Change in:
G|-------------------------5---------------------|
D|-----9-7------------------5--------------------|
A|---7----------------3--------------------------|
E|----------7---------------------3--------------|

Chorus:
G|-----------------------------------------|
D|-----------------------------------------|
A|------------00000-22222-33333------------|
E|--33333----------------------------------|

Bridge:
G|----------------------------------------------------------|
D|----4-7-9-12-9-7-4----------------------------------------|
A|--7-------------------------------------------------------|
E|----------------------------------------------------------|

G|----------------------------------------------------------|
D|----------------------------------------------------------|
A|----4-7-9-12-9-7-4----------------------------------------|
E|--7-------------------------------------------------------|

G|--------------------------------------------------------|
D|-----2-5-7--10-7-2--------------------------------------|
A|---3----------------------------------------------------|
E|--------------------------------------------------------|

G|---------------------------------------------------|
D|---------------------------------------------------|
A|----2-3-5-7-5-3-2----------------------------------|
E|--3------------------------------------------------|

Order:
2Verse
4Chorus

Verse
Verse(whitout change)
4Chorus
Bridge
2Verse
4Chorus
  development and support by
dmitry ivanov