rock
 
|tablatures   |lyrics   |discussion forums   |more tabs @ XGuitar.com

Red Hot Chili Peppers tabs

Hard To Concentrate guitar tab

--------------------------------------------------------------------
	hard to concentrate - red hot chili peppers
--------------------------------------------------------------------
Tabbed by: junkie81
Email: bak.steen@hotmail.com

Tuning:standard

this is the solobit played during the verse and chorus

during verse:

e|-----16------18-18-16--------16-16---18-18-16---------------------|
B|--17------17---------17--17-------17---------17-------------------|
G|------------------------------------------------------------------|
D|------------------------------------------------------------------|
A|------------------------------------------------------------------|
E|------------------------------------------------------------------|

e|--------15---------16-15-------15----------16-15------------------|
B|----15-------15---------15---15----15-----------15----------------|
G|--16------16---------------16----16---16--------------------------|
D|------------------------------------------------------------------|
A|------------------------------------------------------------------|
E|------------------------------------------------------------------|

during chorus:

e|---------13-13----------11-11----------11-11----------13-13-------|
B|--14\13--------13-13\12-------12-12\10-------10-10/12-------------|
G|------------------------------------------------------------------|
D|------------------------------------------------------------------|
A|------------------------------------------------------------------|
E|------------------------------------------------------------------|

e|-----------13-13----------11-11----------11-11----------13-13-----|
B|--12-12h13-------13-13\12-------12-12\10-------10-10/12-----------|
G|------------------------------------------------------------------|
D|------------------------------------------------------------------|
A|------------------------------------------------------------------|
E|------------------------------------------------------------------|


| /  slide up
| \  slide down
| h  hammer-on

have fun
=====================================================================
  development and support by
dmitry ivanov