rock
 
|tablatures   |lyrics   |discussion forums   |more tabs @ XGuitar.com

Red Hot Chili Peppers tabs

Grand Pappy Du Plenty guitar tab

Grand Pappy Du Plenty
The Red Hot Chili Peppers
Red Hot Chili Peppers

Intro seulement :

e-|-------------------------------------|
B-|-------------------------------------|
G-|------2-------2--2-------12----------|  
D-|--4-4-2---4-4-2--2-2-4-7-----4-4--7--|
A-|--4-4-----4-4------2-4-7-----4-4--7--|
E-|--2-2-----2-2--------2-5-----2-2--5--|


e|--------------------------------------|
B|--------------------------------------|
G|--------------------------------------|
D|--7-7-7-7---77777--7-7---4------------|
A|--7-7-7-7---77777--7-7---4------------|
E|--5-5-5-5---55555--5-5---2------------|



[version 2]
RED HOT CHILI PEPPERS - GRAND PAPPY DU PLENTY

PROPS GO TO: Damian

|------------------------------------------------------------------------------|
|------------------------------------------------------------------------------|
|---------------------------------0*-------0*----------------------------------|
|------------------------------------------------------------------------------|
|-----0*-------0*--------------------------------------------------------------|
|-2-2------2-2------5-x-0-x-2-x-2------2-2------5--5--5--5---5-5-5-5---5-5-/-2*|

|-0*------------------------------0*--0*-|
|--------------1*----1*-----------1*--1*-|
|-----2*--2*-------------2*--2*----------|
|----------------------------------------|
|----------------------------------------|
|----------------------------------------|

|-0*------------------------------0*--0*-------0----|
|--------------1*----1*-----------1*--1*------------|
|-----2*--2*-------------2*--2*------------0*-------|
|------------------------------------------------3*-|
|---------------------------------------------------|
|---------------------------------------------------|

|------------------------------------------------------------------------------|
|------------------------------------------------------------------------------|
|---------------------------------0*-------0*----------------------------------|
|------------------------------------------------------------------------------|
|-----0*-------0*--------------------------------------------------------------|
|-2-2------2-2------5-x-0-x-2-x-2------2-2------5--5--5--5---5-5-5-5---5-5-/-2*|

|-0*------------------------------0*--0*-|
|--------------1*----1*-----------1*--1*-|
|-----2*--2*-------------2*--2*----------|
|----------------------------------------|
|----------------------------------------|
|----------------------------------------|

|-0*------------------------------0*--0*-------0----|
|--------------1*----1*-----------1*--1*------------|
|-----2*--2*-------------2*--2*------------0*-------|
|------------------------------------------------3*-|
|---------------------------------------------------|
|---------------------------------------------------|

Do you like this tab? Have you found any mistakes? Then e-mail me at damian-tasker@club-internet.fr. See ya!
  development and support by
dmitry ivanov