rock
 
|tablatures   |lyrics   |discussion forums   |more tabs @ XGuitar.com

Red Hot Chili Peppers tabs

Grand Pappy Du Plenty bass tab

Band : The Red Hot Chili Peppers
Song : Grand Pappy Du Plenty
Album : Red Hot Chili Peppers, 1984
Note : no real structure in this song. Flea plays some parts with a delay pedal
       on the album version. Please notice that "~~~~~" means let the note rings :)

Tabbed by Laurent, mail-me at funkybassflea@hotmail.com

G|-----2~~~~~~~~~~-|-----2~~~~~~~~~~-|
D|-----------------|-----------------|
A|-----------------|-----------------|
E|-2-2-------------|-2-2-------------|


G|--------------12~~~~~~~~~~-|-----------------|
D|---------------------------|-----5~~~~~~~~~~-|
A|---------------------------|-----------------|
E|-5-x0-x2-x5-x--------------|-2-2-------------|


G|------------|----------|-------------------|
D|------------|----------|-------------------|
A|------------|----------|-------------------|
E|-5--5--5--5-|-5-5-5--5-|-5--5--2~~~~~~~~~~-|


G|------|------|------|------|-------------|
D|------|------|------|------|-------------|
A|------|------|------|------|-------------|  play with delay
E|-x-55-|-x-55-|-x-55-|-x-55-|-1~~~~~~~~~~-|


G|-----------------5-------------------------------|
D|-------------------5-----------------------------|
A|-3~~~~~~~~~~-----------3--3--3--3--3--3--3--3--3-|
E|-------------------------------------------------|


G|------|------|------|------|-------------|
D|------|------|------|------|-------------|
A|------|------|------|------|-------------| play with delay
E|-x-55-|-x-55-|-x-55-|-x-55-|-1~~~~~~~~~~-|



G|------------------------------------------------|----------------|
D|------------------------------------------------| ---------------|
A|-3~~~~~~~~~~~~~~~~----3--3--3--3--3--3--3--3--3-|----------------|
E|------------------------------------------------|-3~~~~~--1~~~~~-|



No bass then for a while. Then repeat the whole stuff and let fade out the F
  development and support by
dmitry ivanov