rock
 
|tablatures   |lyrics   |discussion forums   |more tabs @ XGuitar.com

Red Hot Chili Peppers tabs

Good Time Boys guitar tab

Red Hot Chili Peppers - Good Time Boys
Submitted By: Burt Cocain
EMail: burt_Cocain@hotmail.com


Gtr.1

E||--22---22-22~-----------|--22---22-22---22-22--22~-----|
B||------------------------|------------------------------|
G||--3---------------------|------------------------------|
D||------------------------|------------------------------|
A||------------------------|------------------------------|
E||------------------------|------------------------------|



--------22--22~-------|-------------------|---------------------------------|
----------------------|-------------------|------2h0---0--------------------|
----------------------|-------------------|------2h0---0--------------------|
----------------------|-------------------|----------2---2--------0---------|
----------------------|---------0---------|-----------------0-1-2---2-1-0---|
----------------------|---------0---------|--0-0--------------------------3-|



-------------------------------------|---------------------------------|
------2h0---0----14-14-14-14--14--14-|------2h0---0--------------------|
------2h0---0----14-14-14-14--14--14-|------2h0---0--------------------|
----------2---2--14-14-14-14--14--14-|----------2---2--------0-5-2-----|
-------------------------------------|-----------------0-1-2-------5-2-|
--0-0--------------------------------|--0-0----------------------------|



-----------------------------------------|---------------------------------|
------2h0---0----14-14-14-14-14-14-14-14-|------2h0---0--------------------|
------2h0---0----14-14-14-14-14-14-14-14-|------2h0---0--------------------|
----------2---2--14-14-14-14-14-14-14-14-|----------2---2--------0---------|
-----------------------------------------|-----------------0-1-2---2-1-0---|
--0-0------------------------------------|--0-0--------------------------3-|



-------------------------------|---------------------------------|
------2h0---0------------------|------2h0---0--------------------|
------2h0---0------------------|------2h0---0--------------------|
----------2---2----------------|----------2---2--------0-5-2-----|
-----------------7-5-----------|-----------------0-1-2-------5-2-|
--0-0----------------7-6-5-3b--|--0-0----------------------------|



---------------------------|------------------------|------------------|
------2h0---0----14--------|------2---2h0-----------|------------------|
------2h0---0----14--------|------2---2h0-----------|------------------|
----------2---2--14--------|------2---2h0-----------|------------------|
---------------------------|------------------------|------------------|
--0-0----------------------|--0-0---0---------------|------------------|



------------------------|------------------|
------2---2h0-----------|------------------|
------2---2h0-----------|------------------|
------2---2h0-----------|------------------|
------------------------|------------------|
--0-0---0---------------|------------------|



-------------------------------------------|
------------------------------------14--14-|
-----------------12-----------------14--14-|
-----------------12-----------------14--14-|
---------------------x---------------------|
--10-12-12-10-12-------12-12-10-12---------|



-------------------------------------------|
------------------------------------14--14-|
-----------------12-----------------14--14-|
-----------------12-----------------14--14-|
---------------------x---------------------|
--10-12-12-10-12-------12-12-10-12---------|



-------------------------------------------|
------------------------------------14--14-|
-----------------12-----------------14--14-|
-----------------12-----------------14--14-|
---------------------x---------------------|
--10-12-12-10-12-------12-12-10-12---------|



-------------------------------------------|------------------------|
------------------------------------14--14-|------2---2h0-----------|
-----------------12-----------------14--14-|------2---2h0-----------|
-----------------12-----------------14--14-|------2---2h0-----------|
---------------------x---------------------|------------------------|
--10-12-12-10-12-------12-12-10-12---------|--0-0---0---------------|



------------------------|--------------------------|--------------------|
------2---2h0-----------|------2---2h0-------------|-------------3------|
------2---2h0-----------|------2---2h0-------------|-------------3------|
------2---2h0-----------|------2---2h0-------------|--------------------|
------------------------|----------------------5h0-|--------------------|
--0-0---0---------------|--0-0---0-----------------|--0-----------------|



---------------------------------|--------------------------------|
------2---2h0-----8-----8--8-8-8-|------3---2h0---------14--14----|
------2---2h0-----7-----7--7-7-7-|------3---2h0---------14--14----|
------2---2h0--------------------|------3---2h0---------14--14----|
---------------------------------|--------------------------------|
--0-0---0-----0-0---0-0----------|--0-0---0-----0-0-0-0-----------|



---------------------------------|----------------------------------|
------2---2h0-----8-----8--8-8-8-|----------8-----8-----8-----8-----|
------2---2h0-----7-----7--7-7-7-|----------7-----7-----7-----7-----|
------2---2h0--------------------|----------------------------------|
---------------------------------|--7-7-7-7---7-7---7-7---7-7---7-7-|
--0-0---0-----0-0---0-0----------|----------------------------------|



-----10-10-10-10----------------|------------------------|
-----10-10-10-10------------x-x-|-------x----------------|
-------------------7---9----x-x-|--9----x--9-7---9-------|
-------------------7---9----x-x-|--9----x--9-7---9-------|
--9--------------9--------------|------------------------|
--7--------------7--------------|-------------------5b---|



-----10-10-10-10--------------|--------------------------|
-----10-10-10-10--------------|--3--3--3--3--3--3--3--3--|
-------------------7---9------|--0--0--0--0--0--0--0--0--|
-------------------7---9------|--0--0--0--0--0--0--0--0--|
--9--------------9------------|--x--x--x--x--x--x--x--x--|
--7--------------7------------|--3--3--3--3--3--3--3--3--|



-----10-10-10-10----------------|------------------------|
-----10-10-10-10------------x-x-|-------x----------------|
-------------------7---9----x-x-|--9----x--9-7---9-------|
-------------------7---9----x-x-|--9----x--9-7---9-------|
--9--------------9--------------|------------------------|
--7--------------7--------------|-------------------5b---|



-----10-10-10-10--------------|--------------------------|
-----10-10-10-10--------------|--3--3--3--3--3--3--3--3--|
-------------------7---9------|--0--0--0--0--0--0--0--0--|
-------------------7---9------|--0--0--0--0--0--0--0--0--|
--9--------------9------------|--x--x--x--x--x--x--x--x--|
--7--------------7------------|--3--3--3--3--3--3--3--3--|



--------------------------10----|--------------------------------|
------2h0---0-------------------|------2h0---0-------------------|
------2h0---0---------9---------|------2h0---0-------------------|
----------2---------------------|----------2---------------------|
------------------5/7---7-------|------------------7-5-----------|
--0h4---------3h0---------------|--0h4---------3h0-----7-6-5-3~--|



----------------------------------|--------------------------------------|
------2h0---0-----------------7/5-|------2h0---0-----14-14-14-14--14--14-|
------2h0---0---------6/4---------|------2h0---0-----14-14-14-14--14--14-|
----------2---------------5/7-----|----------2-------14-14-14-14--14--14-|
------------------5/7-------------|--------------------------------------|
--0h4---------3h0-----------------|--0h4---------3-0---------------------|



------------------------|------------------|------------------------|
------2---2h0-----------|------------------|------2---2h0-----------|
------2---2h0-----------|------------------|------2---2h0-----------|
------2---2h0-----------|------------------|------2---2h0-----------|
------------------------|------------------|------------------------|
--0-0---0---------------|------------------|--0-0---0---------------|



------------------------------|-------------------------------------------|
----------14-14-14-14--14--14-|------------------------------------14--14-|
----------14-14-14-14--14--14-|-----------------12-----------------14--14-|
----------14-14-14-14--14--14-|-----------------12-----------------14--14-|
------------------------------|---------------------x---------------------|
------------------------------|--10-12-12-10-12-------12-12-10-12---------|



-------------------------------------------|
------------------------------------14--14-|
-----------------12-----------------14--14-|
-----------------12-----------------14--14-|
---------------------x---------------------|
--10-12-12-10-12-------12-12-10-12---------|



-------------------------------------------|
------------------------------------14--14-|
-----------------12-----------------14--14-|
-----------------12-----------------14--14-|
---------------------x---------------------|
--10-12-12-10-12-------12-12-10-12---------|



-------------------------------------------|------------------------|
------------------------------------14--14-|------2---2h0-----------|
-----------------12-----------------14--14-|------2---2h0-----------|
-----------------12-----------------14--14-|------2---2h0-----------|
---------------------x---------------------|------------------------|
--10-12-12-10-12-------12-12-10-12---------|--0-0---0---------------|



------------------|--------------------------|--12----------------|
------------------|------2---2h0-------------|--12----------------|
------------------|------2---2h0-------------|--12----------------|
------------------|------2---2h0-------------|--12----------------|
------------------|----------------------0h2-|--------------------|
------------------|--0-0---0-----------------|--------------------|



---------------------------------|-------------------------------------|
------2h0---0--------------------|------2h0---0----14-14-14-14--14--14-|
------2h0---0--------------------|------2h0---0----14-14-14-14--14--14-|
----------2---2--------0---------|----------2---2--14-14-14-14--14--14-|
-----------------0-1-2---2-1-0---|-------------------------------------|
--0-0--------------------------3-|--0-0--------------------------------|



---------------------------------|----------------------------------|
------2h0---0--------------------|----------8-----8-----8-----8-----|
------2h0---0--------------------|----------7-----7-----7-----7-----|
----------2---2--------0-5-2-----|----------------------------------|
-----------------0-1-2-------5-2-|--7-7-7-7---7-7---7-7---7-7---7-7-|
--0-0----------------------------|----------------------------------|



-----10-10-10-10----------------|------------------------|
-----10-10-10-10------------x-x-|-------x----------------|
-------------------7---9----x-x-|--9----x--9-7---9-------|
-------------------7---9----x-x-|--9----x--9-7---9-------|
--9--------------9--------------|------------------------|
--7--------------7--------------|-------------------5b---|



-----10-10-10-10--------------|--------------------------|
-----10-10-10-10--------------|--3--3--3--3--3--3--3--3--|
-------------------7---9------|--0--0--0--0--0--0--0--0--|
-------------------7---9------|--0--0--0--0--0--0--0--0--|
--9--------------9------------|--x--x--x--x--x--x--x--x--|
--7--------------7------------|--3--3--3--3--3--3--3--3--|



-----10-10-10-10----------------|------------------------|
-----10-10-10-10------------x-x-|-------x----------------|
-------------------7---9----x-x-|--9----x--9-7---9-------|
-------------------7---9----x-x-|--9----x--9-7---9-------|
--9--------------9--------------|------------------------|
--7--------------7--------------|-------------------5b---|



-----10-10-10-10--------------|--------------------------|
-----10-10-10-10--------------|--3--3--3--3--3--3--3--3--|
-------------------7---9------|--0--0--0--0--0--0--0--0--|
-------------------7---9------|--0--0--0--0--0--0--0--0--|
--9--------------9------------|--x--x--x--x--x--x--x--x--|
--7--------------7------------|--3--3--3--3--3--3--3--3--|



------------------------|------------------------|
------2---2h0-----------|------2---2h0-----------|
------2---2h0-----------|------2---2h0-----------|
------2---2h0-----------|------2---2h0-----------|
------------------------|------------------------|
--0-0---0---------------|--0-0---0---------------|



----------------------------------|--0----------------|----------|
------2---2h0---------------------|--0----------------|----------|
------2---2h0---------------12b---|-------------------|----------|
------2---2h0---------12----5b----|-------------------|----------|
----------------12-14-5--14-------|-------------------|----------|
--0-0---0-------5--7-----7--------|-------------------|----------|



----------------------------------------------|--------------------------|
----------------------------------------------|--------------------------|
-----------15-16------------------------------|--------------------------|
--17-15----------17-15----14-15---------------|--------------------------|
--------17-------------17-------15-13~--15-13-|--15-16-15-13-15-13-------|
----------------------------------------------|--------------------15-13-|



------------------------------|------------------------------|
------------------------------|------------------------------|
------------------------------|--15~-------------------------|
--------------------------15--|------------------------------|
-------13---15~--16---16b-----|-------16b--16~--15---13------|
--15~-------------------------|--------------------------13--|



--------------------|------------------------|------------------|
--------------------|------2---2h0-----------|------------------|
--------------------|------2---2h0-----------|------------------|
--------------------|------2---2h0-----------|------------------|
--------------------|------------------------|------------------|
--15----------------|--0-0---0---------------|------------------|



------------------------|------------------------------|
------2---2h0-----------|----------14-14-14-14--14--14-|
------2---2h0-----------|----------14-14-14-14--14--14-|
------2---2h0-----------|----------14-14-14-14--14--14-|
------------------------|------------------------------|
--0-0---0---------------|------------------------------|



-------------------------------------------|
------------------------------------14--14-|
-----------------12-----------------14--14-|
-----------------12-----------------14--14-|
---------------------x---------------------|
--10-12-12-10-12-------12-12-10-12---------|



-------------------------------------------|
------------------------------------14--14-|
-----------------12-----------------14--14-|
-----------------12-----------------14--14-|
---------------------x---------------------|
--10-12-12-10-12-------12-12-10-12---------|



-------------------------------------------|
------------------------------------14--14-|
-----------------12-----------------14--14-|
-----------------12-----------------14--14-|
---------------------x---------------------|
--10-12-12-10-12-------12-12-10-12---------|



-------------------------------------------|------------------------|
------------------------------------14--14-|------2---2h0-----------|
-----------------12-----------------14--14-|------2---2h0-----------|
-----------------12-----------------14--14-|------2---2h0-----------|
---------------------x---------------------|------------------------|
--10-12-12-10-12-------12-12-10-12---------|--0-0---0---------------|



------------------------|--------------------------|--------------------|
------2---2h0-----------|------2---2h0-------------|-------------3------|
------2---2h0-----------|------2---2h0-------------|-------------3------|
------2---2h0-----------|------2---2h0-------------|--------------------|
------------------------|----------------------5h0-|--------------------|
--0-0---0---------------|--0-0---0-----------------|--0-----------------|



---------------------------------|--------------------------------|
------2---2h0-----8-----8--8-8-8-|------3---2h0---------14--14----|
------2---2h0-----7-----7--7-7-7-|------3---2h0---------14--14----|
------2---2h0--------------------|------3---2h0---------14--14----|
---------------------------------|--------------------------------|
--0-0---0-----0-0---0-0----------|--0-0---0-----0-0-0-0-----------|



---------------------------------|----------------------------------|
------2---2h0-----8-----8--8-8-8-|----------8-----8-----8-----8-----|
------2---2h0-----7-----7--7-7-7-|----------7-----7-----7-----7-----|
------2---2h0--------------------|----------------------------------|
---------------------------------|--7-7-7-7---7-7---7-7---7-7---7-7-|
--0-0---0-----0-0---0-0----------|----------------------------------|



-----10-10-10-10----------------|------------------------|
-----10-10-10-10------------x-x-|-------x----------------|
-------------------7---9----x-x-|--9----x--9-7---9-------|
-------------------7---9----x-x-|--9----x--9-7---9-------|
--9--------------9--------------|------------------------|
--7--------------7--------------|-------------------5b---|



-----10-10-10-10--------------|--------------------------|
-----10-10-10-10--------------|--3--3--3--3--3--3--3--3--|
-------------------7---9------|--0--0--0--0--0--0--0--0--|
-------------------7---9------|--0--0--0--0--0--0--0--0--|
--9--------------9------------|--x--x--x--x--x--x--x--x--|
--7--------------7------------|--3--3--3--3--3--3--3--3--|



-----10-10-10-10----------------|------------------------|
-----10-10-10-10------------x-x-|-------x----------------|
-------------------7---9----x-x-|--9----x--9-7---9-------|
-------------------7---9----x-x-|--9----x--9-7---9-------|
--9--------------9--------------|------------------------|
--7--------------7--------------|-------------------5b---|



-----10-10-10-10--------------|--------------------------|
-----10-10-10-10--------------|--3--3--3--3--3--3--3--3--|
-------------------7---9------|--0--0--0--0--0--0--0--0--|
-------------------7---9------|--0--0--0--0--0--0--0--0--|
--9--------------9------------|--x--x--x--x--x--x--x--x--|
--7--------------7------------|--3--3--3--3--3--3--3--3--|



-----10-10-10-10----------------|------------------------|
-----10-10-10-10------------x-x-|-------x----------------|
-------------------7---9----x-x-|--9----x--9-7---9-------|
-------------------7---9----x-x-|--9----x--9-7---9-------|
--9--------------9--------------|------------------------|
--7--------------7--------------|-------------------5b---|



-----10-10-10-10--------------|--------------------------|
-----10-10-10-10--------------|--3--3--3--3--3--3--3--3--|
-------------------7---9------|--0--0--0--0--0--0--0--0--|
-------------------7---9------|--0--0--0--0--0--0--0--0--|
--9--------------9------------|--x--x--x--x--x--x--x--x--|
--7--------------7------------|--3--3--3--3--3--3--3--3--|



-----10-10-10-10----------------|------------------------|
-----10-10-10-10------------x-x-|-------x----------------|
-------------------7---9----x-x-|--9----x--9-7---9-------|
-------------------7---9----x-x-|--9----x--9-7---9-------|
--9--------------9--------------|------------------------|
--7--------------7--------------|-------------------5b---|



-----10-10-10-10--------------|--------------------------|
-----10-10-10-10--------------|--3--3--3--3--3--3--3--3--|
-------------------7---9------|--0--0--0--0--0--0--0--0--|
-------------------7---9------|--0--0--0--0--0--0--0--0--|
--9--------------9------------|--x--x--x--x--x--x--x--x--|
--7--------------7------------|--3--3--3--3--3--3--3--3--|



-------------------------------|--------15r---12h15h12-------12~---|
--15----15------15-------------|-----------------------12----15b---|
--14b---14b-----14r---12-14----|--12r---------------------12-------|
----------------------------14-|-----------------------------------|
-------------------------------|-----------------------------------|
-------------------------------|-----------------------------------|



--12---------------------------------------------------------|
-----15h12-15h12----12---------------------------------------|
-----------------15----12h14h12h14h12h14-12----16b----16r-14-|
--------------------------------------------14---------------|
-------------------------------------------------------------|
-------------------------------------------------------------|



------------------------------------|
------------------------------------|
--12-14-12r-----------12b---12~-----|
-----14------14-12-14---------------|
------------------------------------|
------------------------------------|



--12h15h12----12-------------12----------------------|
-----------15----15h12-12----12----------------------|
--------------------------15-----9h7-----------------|
-------------------------------------7h5-------------|
-----------------------------------------7h5---------|
---------------------------------------------7-5-3h0-|



-------------------12-------------12----------|------12----------------------|
----------------15b---15h12-15-15b---15h12-15-|--15b----15h12-17b---------x--|
----2b--14r-12--------------------------------|------------------------------|
----------------------------------------------|------------------------------|
----------------------------------------------|------------------------------|
--0-------------------------------------------|------------------------------|



----------------------------------------------|--------------------------|
----------------------------------------------|--------------------------|
-----------12h13------------------------------|--------------------------|
--14-12----------14-12----11-12---------------|--------------------------|
--------14-------------14-------12-10~--12-10-|--12-13-12-10-12-10-------|
----------------------------------------------|--------------------12-10-|



--------------------||
--------------------||
--------------------||
--------------------||
--------------------||
--12----------------||


Gtr.2

E||-------------------------------------|------------------------------|
B||-----15--15--x-x-15-15--15-x-x-15/17-|-----15--15--x-x-15-x---------|
G||-----x---x---x-x-x--x---x--x-x-x-----|-----x---x---x-x-x--x-x-------|
D||-----12--12--x-x-12-12--12-x-x-12/14-|-----12--12--x-x-12-x---------|
A||-------------------------------------|------------------------------|
E||--0----------------------------------|--0----------------------3b---|



-------------------------------------|-------------------------------------|
-----15--15--x-x-15-15--15-x-x-15/17-|-----15--15--x-x-14-14-14-14--14--14-|
-----x---x---x-x-x--x---x--x-x-x-----|-----x---x---x-x-14-14-14-14--14--14-|
-----12--12--x-x-12-12--12-x-x-12/14-|-----12--12--x-x-14-14-14-14--14--14-|
-------------------------------------|-------------------------------------|
--0----------------------------------|--0----------------------------------|



------------------------------|----------------------------|
--8--x-8--x-x-x-8--x-8--x-x-x-|--8--x-8--x-x-x-8-----14----|
--7--x-7--x-x-x-7--x-7--x-x-x-|--7--x-7--x-x-x-7-----14----|
--6--x-6--x-x-x-6--x-6--x-x-x-|--6--x-6--x-x-x-6--x--14----|
------------------------------|----------------------------|
------------------------------|----------------------------|



------------------------------|----------------------------|
--8--x-8--x-x-x-8--x-8--x-x-x-|--8--x-8--x-x-x-8-----14----|
--7--x-7--x-x-x-7--x-7--x-x-x-|--7--x-7--x-x-x-7-----14----|
--6--x-6--x-x-x-6--x-6--x-x-x-|--6--x-6--x-x-x-6--x--14----|
------------------------------|----------------------------|
------------------------------|----------------------------|



------------------------------|----------------------------|
--8--x-8--x-x-x-8--x-8--x-x-x-|--8--x-8--x-x-x-8-----14----|
--7--x-7--x-x-x-7--x-7--x-x-x-|--7--x-7--x-x-x-7-----14----|
--6--x-6--x-x-x-6--x-6--x-x-x-|--6--x-6--x-x-x-6--x--14----|
------------------------------|----------------------------|
------------------------------|----------------------------|



------------------------------|--------------------------|
--8--x-8--x-x-x-8--x-8--x-x-x-|--8--x-8--x-x-x-14--------|
--7--x-7--x-x-x-7--x-7--x-x-x-|--7--x-7--x-x-x-14--------|
--6--x-6--x-x-x-6--x-6--x-x-x-|--6--x-6--x-x-x-14--------|
------------------------------|--------------------------|
------------------------------|--------------------------|



-----------------------------|-----------------------------|
--8-8-8-8--------------------|--8-8-8-8--------------------|
--7-7-7-7--0-6-7--0-6-7---x--|--7-7-7-7--0-6-7--x-------x--|
--6-6-6-6--------------------|--6-6-6-6-----------7--5-----|
-----------------------------|-----------------------------|
-----------------------------|-----------------------------|



-------------------------------|-----------------------------------|
--8-8-8-8----------------x-x-x-|--8-8-8-8------14-14-14-14--14--14-|
--7-7-7-7--0-6-7--0-6-7--x-x-x-|--7-7-7-7---x--14-14-14-14--14--14-|
--6-6-6-6----------------x-x-x-|--6-6-6-6------14-14-14-14--14--14-|
-------------------------------|-----------------------------------|
-------------------------------|-----------------------------------|



------------------|------------------|------------------|------------------|
------------------|------------------|------------------|------------------|
------------------|------------------|------------------|------------------|
------------------|------------------|------------------|------------------|
------------------|------------------|------------------|------------------|
------------------|------------------|------------------|------------------|



-------------------------------|-----------------------------|
--8-8-8-8----------------x-x-x-|--8-8-8-8--------------------|
--7-7-7-7--0-6-7--0-6-7--x-x-x-|--7-7-7-7--0-6-7--x-------x--|
--6-6-6-6----------------x-x-x-|--6-6-6-6-----------7--5-----|
-------------------------------|-----------------------------|
-------------------------------|-----------------------------|



-------------------------------|-------------------|------------------|
--8-8-8-8----------------x-x-x-|--8----------------|------------------|
--7-7-7-7--0-6-7--0-6-7--x-x-x-|--7----------------|------------------|
--6-6-6-6----------------x-x-x-|--6----------------|------------------|
-------------------------------|-------------------|------------------|
-------------------------------|-------------------|------------------|



------------------|------------------|------------------|------------------|
------------------|------------------|------------------|------------------|
------------------|------------------|------------------|------------------|
------------------|------------------|------------------|------------------|
------------------|------------------|------------------|------------------|
------------------|------------------|------------------|------------------|



------------------|------------------|------------------|------------------|
------------------|------------------|------------------|------------------|
------------------|------------------|------------------|------------------|
------------------|------------------|------------------|------------------|
------------------|------------------|------------------|------------------|
------------------|------------------|------------------|------------------|



------------------|------------------|------------------|------------------|
------------------|------------------|------------------|------------------|
------------------|------------------|------------------|------------------|
------------------|------------------|------------------|------------------|
------------------|------------------|------------------|------------------|
------------------|------------------|------------------|------------------|



------------------|------------------|------------------|
------------------|------------------|------------------|
------------------|------------------|------------------|
------------------|------------------|------------------|
------------------|------------------|------------------|
------------------|------------------|------------------|



-----------------------------|-----------------------------|
--8-8-8-8--------------------|--8-8-8-8--------------------|
--7-7-7-7--0-6-7--0-6-7---x--|--7-7-7-7--0-6-7--x-------x--|
--6-6-6-6--------------------|--6-6-6-6-----------7--5-----|
-----------------------------|-----------------------------|
-----------------------------|-----------------------------|



-------------------------------|-----------------------------------|
--8-8-8-8----------------x-x-x-|--8-8-8-8------14-14-14-14--14--14-|
--7-7-7-7--0-6-7--0-6-7--x-x-x-|--7-7-7-7---x--14-14-14-14--14--14-|
--6-6-6-6----------------x-x-x-|--6-6-6-6------14-14-14-14--14--14-|
-------------------------------|-----------------------------------|
-------------------------------|-----------------------------------|



------------------|------------------|------------------|------------------|
------------------|------------------|------------------|------------------|
------------------|------------------|------------------|------------------|
------------------|------------------|------------------|------------------|
------------------|------------------|------------------|------------------|
------------------|------------------|------------------|------------------|



-------------------------------|-----------------------------|
--8-8-8-8----------------x-x-x-|--8-8-8-8--------------------|
--7-7-7-7--0-6-7--0-6-7--x-x-x-|--7-7-7-7--0-6-7--x-------x--|
--6-6-6-6----------------x-x-x-|--6-6-6-6-----------7--5-----|
-------------------------------|-----------------------------|
-------------------------------|-----------------------------|



-------------------------------|-------------------|------------------|
--8-8-8-8----------------x-x-x-|--8----------------|------------------|
--7-7-7-7--0-6-7--0-6-7--x-x-x-|--7----------------|------------------|
--6-6-6-6----------------x-x-x-|--6----------------|------------------|
-------------------------------|-------------------|------------------|
-------------------------------|-------------------|------------------|



------------------|------------------|------------------|------------------|
------------------|------------------|------------------|------------------|
------------------|------------------|------------------|------------------|
------------------|------------------|------------------|------------------|
------------------|------------------|------------------|------------------|
------------------|------------------|------------------|------------------|



------------------|------------------|------------------|------------------|
------------------|------------------|------------------|------------------|
------------------|------------------|------------------|------------------|
------------------|------------------|------------------|------------------|
------------------|------------------|------------------|------------------|
------------------|------------------|------------------|------------------|



------------------|------------------|------------------|
------------------|------------------|------------------|
------------------|------------------|------------------|
------------------|------------------|------------------|
------------------|------------------|------------------|
------------------|------------------|------------------|



-------------------------------|------------------------------|
--8-8-8-8----------------x-x-x-|--8-8-8-8---------------------|
--7-7-7-7--0-6-7--0-6-7--x-x-x-|--7-7-7-7--0-6-7--x-----------|
--6-6-6-6----------------x-x-x-|--6-6-6-6-----------7--5--x-x-|
-------------------------------|------------------------------|
-------------------------------|------------------------------|



-----------------------------|-------------------|--------------------------|
--8-8-8-8--x-x-x-x--x-x-x----|-------------------|--15-15-15-15-15-15-15-15-|
--7-7-7-7--x-x-x-x--x-x-x----|--9----------------|--14b14b14b14b14b14b14b14b|
--6-6-6-6--x-x-x-x--x-x-x----|--9----------------|--------------------------|
-----------------------------|-------------------|--------------------------|
-----------------------------|-------------------|--------------------------|



--------------------------------|------------------|------------------------|
--------------------------------|------------------|------------------------|
--------3-4---------------------|------------------|------------------------|
--5-3-------5-3---2-3-----------|------------------|---------------------3--|
------5---------5-----3-1~--3-1-|--3-4-3-1-3-1-----|------1---3~--4---4b----|
--------------------------------|--------------3-1-|--3~--------------------|



------------------------|---------------x----|-----------------------------|
------------------------|--------------------|--8-8-8-8--------------------|
--3~--------------------|--------------------|--7-7-7-7--0-6-7--0-6-7---x--|
------------------------|--------------------|--6-6-6-6--------------------|
------4b--4~--3---1-----|--------------------|-----------------------------|
---------------------1--|--3-----------------|-----------------------------|



-----------------------------|-------------------------------|
--8-8-8-8--------------------|--8-8-8-8----------------x-x-x-|
--7-7-7-7--0-6-7--x-------x--|--7-7-7-7--0-6-7--0-6-7--x-x-x-|
--6-6-6-6-----------7--5-----|--6-6-6-6----------------x-x-x-|
-----------------------------|-------------------------------|
-----------------------------|-------------------------------|



-----------------------------------|------------------|------------------|
--8-8-8-8------14-14-14-14--14--14-|------------------|------------------|
--7-7-7-7---x--14-14-14-14--14--14-|------------------|------------------|
--6-6-6-6------14-14-14-14--14--14-|------------------|------------------|
-----------------------------------|------------------|------------------|
-----------------------------------|------------------|------------------|



------------------|------------------|-------------------------------|
------------------|------------------|--8-8-8-8----------------x-x-x-|
------------------|------------------|--7-7-7-7--0-6-7--0-6-7--x-x-x-|
------------------|------------------|--6-6-6-6----------------x-x-x-|
------------------|------------------|-------------------------------|
------------------|------------------|-------------------------------|



-----------------------------|-------------------------------|
--8-8-8-8--------------------|--8-8-8-8----------------x-x-x-|
--7-7-7-7--0-6-7--x-------x--|--7-7-7-7--0-6-7--0-6-7--x-x-x-|
--6-6-6-6-----------7--5-----|--6-6-6-6----------------x-x-x-|
-----------------------------|-------------------------------|
-----------------------------|-------------------------------|



-------------------|------------------|------------------|------------------|
--8----------------|------------------|------------------|------------------|
--7----------------|------------------|------------------|------------------|
--6----------------|------------------|------------------|------------------|
-------------------|------------------|------------------|------------------|
-------------------|------------------|------------------|------------------|



------------------|------------------|------------------|------------------|
------------------|------------------|------------------|------------------|
------------------|------------------|------------------|------------------|
------------------|------------------|------------------|------------------|
------------------|------------------|------------------|------------------|
------------------|------------------|------------------|------------------|



------------------|------------------|------------------|------------------|
------------------|------------------|------------------|------------------|
------------------|------------------|------------------|------------------|
------------------|------------------|------------------|------------------|
------------------|------------------|------------------|------------------|
------------------|------------------|------------------|------------------|



------------------|------------------|------------------|------------------|
------------------|------------------|------------------|------------------|
------------------|------------------|------------------|------------------|
------------------|------------------|------------------|------------------|
------------------|------------------|------------------|------------------|
------------------|------------------|------------------|------------------|



------------------|------------------|------------------|------------------|
------------------|------------------|------------------|------------------|
------------------|------------------|------------------|------------------|
------------------|------------------|------------------|------------------|
------------------|------------------|------------------|------------------|
------------------|------------------|------------------|------------------|



------------------|-------------------------------------|
------------------|-----15--15--x-x-15-15--15-x-x-15/17-|
------------------|-----x---x---x-x-x--x---x--x-x-x-----|
------------------|-----12--12--x-x-12-12--12-x-x-12/14-|
------------------|-------------------------------------|
------------------|--0----------------------------------|



-----------------------------|-------------------------------------|
-----15--15--x-x-15----------|-----15--15--x-x-15-15--15-x-x-15/17-|
-----x---x---x-x-x-----------|-----x---x---x-x-x--x---x--x-x-x-----|
-----12--12--x-x-12--9--5b---|-----12--12--x-x-12-12--12-x-x-12/14-|
-----------------------------|-------------------------------------|
--0--------------------------|--0----------------------------------|



-----------------------------|-------------------------------------|
-----15--15--x-x-15----------|-----15--15--x-x-15-15--15-x-x-15/17-|
-----x---x---x-x-x-----------|-----x---x---x-x-x--x---x--x-x-x-----|
-----12--12--x-x-12--9--5b---|-----12--12--x-x-12-12--12-x-x-12/14-|
-----------------------------|-------------------------------------|
--0--------------------------|--0----------------------------------|



-----------------------------|-------------------------------------|
-----15--15--x-x-15----------|-----15--15--x-x-15-15--15-x-x-15/17-|
-----x---x---x-x-x-----------|-----x---x---x-x-x--x---x--x-x-x-----|
-----12--12--x-x-12--9--5b---|-----12--12--x-x-12-12--12-x-x-12/14-|
-----------------------------|-------------------------------------|
--0--------------------------|--0----------------------------------|



------------------|----------|------------------||
------------------|----------|------------------||
------------------|----------|------------------||
------------------|----------|------------------||
------------------|----------|------------------||
------------------|----------|------------------||
  development and support by
dmitry ivanov