rock
 
|tablatures   |lyrics   |discussion forums   |more tabs @ XGuitar.com

Red Hot Chili Peppers tabs

Get Up And Jump guitar tab

Red Hot Chili Peppers - Get Up And Jump
Submitted By: Little Ben
EMail: Bartdrinan@AOL.com

Tuning: Standard (E A D G B E)

This is a great song that I love.

Intro: (x2)

E|--9--x-9--9-9--9--x-9--9-9-9--9-9-9-------9-9-9-9---||
B|--7--x-7--7-7--7--x-7--7-7-7--7-7-7-------7-7-7-7---||
G|--7--x-7--7-7--7--x-7--7-7-7--7-7-7-------7-7-7-7---||
D|----------------------------------------------------||
A|----------------------------------------------------||
E|----------------------------------------------------||


E|--9---x-9---9-9---9---9-9-9-9-9-9---9-9----9-9-9-9-9-9-9---||
B|--7---x-7---7-7---7---7-7-7-7-7-7---7-7----7-7-7-7-7-7-7---||
G|--7---x-7---7-7---7---7-7-7-7-7-7---7-7----7-7-7-7-7-7-7---||
D|-----------------------------------------------------------||
A|-----------------------------------------------------------||
E|-----------------------------------------------------------||

The verse is impossible to figure out but the chords are:

G5  On the words "Hey, hey." the chords is G7

Then on "Jump-a boy" it goes back to G5

G7 on "Jump you."

G5 on "Jump-a nun"

The chorus is easy:

A7
       Get up an' Jump
E|-------------------||
B|-------------------||
G|-------------------||
D|-5---5--5--5---5---||x8
A|-------------------||
E|-------------------||

There's an instrumental bit in the chord of G7

G5 when the singing starts.

G7 AFTER the words "Get up."

G5 on "Oh, I be jumpin'"

G7 AFTER "Kinski's bones."

Chorus x6 then the words that sound as if he bit his tongue.

I think it's :


E|-------------------||
B|-------------------||
G|-2---2--2/4\2------||
D|---------------5---||x1
A|-------------------||
E|-------------------||


E|-----------------------------------||
B|-----------------------------------||
G|-2---x-x-2-2-0--2---2-----2----2---||
D|------------------------4----------||x9
A|-----------------------------------||
E|-----------------------------------||


G7 until the singing where it becomes G5

Then you play the intro once and that's it.
  development and support by
dmitry ivanov