rock
 
|tablatures   |lyrics   |discussion forums   |more tabs @ XGuitar.com

Red Hot Chili Peppers tabs

Fortune Faded bass tab

I play guitar but this song is very easy

Intro
G----------------------------------------------------------------------
D---------------------------------------------------------4-4-4-4-4-4--
A------------------------------------------5-5-5-5-5-------------------
E--2-2-2-2-2-2-2-2-4-2-2-2-2-2-2-2-------------------------------------

Verse
G----------------------------------------------------------------------
D----------------------------------------------------------------------
A--2-2-x-x-2-2-x-x-2-2-x-x-2-2-x-x---5-x-5-x-5-5---0-0-0-0---0-0-0-0-0-
E----------------------------------------------------------------------

Chorus
G----------------------------------------------------------------
D---------------------------------------------------4-2--2-------
A--------------10\------------------2-2-2-2-2-2--------5----5-4--
E--5-5-5-5-5------3-3-3-3-3-3------------------------------------

G----------------------------------------------------------------
D----------------------------------------------------------------
A--------------10\------------------2-2-2-2-2-2--2-2-2-----------
E--5-5-5-5-5------3-3-3-3-3-3------------------------------------

Order
Intro
Verse   x8
Chorus
Verse   x5
Chorus
Verse   x2
Intro
Chorus   x2


That’s it
Questions ,correction w\ Ulises e-mail antichrist_superstar_666@hotmail.com
or ulilupax_666@hotmail.com
  development and support by
dmitry ivanov