rock
 
|tablatures   |lyrics   |discussion forums   |more tabs @ XGuitar.com

Red Hot Chili Peppers tabs

Especially In Michigan bass tab

Intro :00         1.     2.         3.
G ---------------|------|----------|------|-----------------------||
D .--------------|-----.|-14h16-14.|------|-----------------------||
A .7h9-999-99-99-|-9-99.|---------.|-9-99-|-7h9-999-9999999-------||
E ---------------|------|----------|------|-----------------------||

Verse :10                                      x10
G ------------------------------------------------||
D .----------------------------------------------.||
A .9-999-994-444-447-777-772-222-22--------------.||
E ------------------------------------------------||

Chorus :56
G ----------------------------------------------------------------|
D ----------------------------------------------------------------|
A -----------------7-7-7-7-7-7-7-7-9-9-9-9-9-9-9-11-5-5-5-5-5-5-5-|
E -5-5-5-5-5-5-5-5------------------------------------------------|

G ----------------------------------------------------------------|
D ----------------------------------------------------------------|
A -5-----------------7-7-7-7-7-7-7-7-9-9-9-9-9-9-9-9-5-5-5-5-5-5-5|
E ---5-5-5-5-5-5-5-5----------------------------------------------|

G --------------------------------||
D --------------------------------||
A -5-5-5-5-5-5-5-5-5--------------||
E --------------------------------||

Verse x6 1:18

Chorus 2 1:46
G ----------------------------------------------------------------|
D .---------------------------------------------------------------|
A .---------------/-7--7-7--7-7-7-/-9--9-9--9-9-9-/-5--5-5--5-5-5-|
E -5--5-5--5-5-5--------------------------------------------------|

G ----------------------------------------------------------------|
D ----------------------------------------------------------------|
A -/12--12-12--12-12-12-/-7--7-7--7-7-7-/-9--9-9--9-9-9-/-5--5-5--|
E ----------------------------------------------------------------|
                x2
G ----------------||
D ---------------.||
A -5-5-5---------.||
E ----------------||

Solo 2:23                                           x2
G ----------------------------------------------------|-----------|
D .------------------------------------14-141414-1414.|.----------|
A .9-999-9912-121212-121214-141414-1414--------------.|.9-999-994-|
E ----------------------------------------------------|-----------|
                                x2
G --------------------------------||
D -------------------------------.||
A -444-447-777-772-222-22--------.||
E --------------------------------||

Bridge 2:41
        x10
G ---|-----|------||
D ---|.---.|------||
A -9-|.999.|999999||
E ---|-----|------||

Verse x4
Chorus 2

Outro 3:46
G ----------------||
D ----------------||
A 5-5-5-5--5-5-9*-||
E ----------------||
  development and support by
dmitry ivanov