rock
 
|tablatures   |lyrics   |discussion forums   |more tabs @ XGuitar.com

Red Hot Chili Peppers tabs

Emit Remmus guitar tab

Red Hot Chili Peppers (Californication)

EMIT REMMUS - tabbed by ???


  Intro: Guitar w/ metal zone pedal
         Let notes ring (and squeal)
e:---6---------------4----------------6---------------4-------------|
B:------------------------------------------------------------------|
G:------------------------------------------------------------------|
D:------------------------------------------------------------------|
A:------------------------------------------------------------------|
E:------------------------------------------------------------------|

e:---4-~--~---~--~---~----~--~--~--~~~~---~--~-~----~-~---~----|
B:-------------------------------------------------------------|
G:-------------------------------------------------------------|
D:-------------------------------------------------------------|
A:-------------------------------------------------------------|
E:-------------------------------------------------------------|
     Later maybe we could share some air ... Leicester square.

Chorus:
         F
e:--------------------------------------------------------|
B:-------------------9--9-----------------------9--9------|
G:-------------------8--8-----------------------8--8------|
D:---8-/-10--10--10--6--6---x-x-8-/-10--10--10--6--6------|
A:---6-/-8---8---8----------x-x-6-/-8---8---8-------------|
E:----------------------------------------------------6~--|
     London in the summer time...


Lyrics:

The California animal is a bear
Angeleno but the devil may care
Summer time to talk and swear
Later maybe we could share some air
I'll take you to the movies there
We could walk through Leicester Square
What could be wetter than
An English girl American man 

Chorus:
London in the summer time
Call me now use the satellite
London in the summer time
Cuss me out and it'll feel all right 

Hesitate but don't refuse
The choice was yours but you said choose
The look she used was green and sharp
Stabbed that boy all in his heart
Come what may the cosmos will
Take me up and down on Primrose Hill
What could be wetter than
An English girl American man 

Chorus 

Cuss me out and it'll feel all right
It's all right now
Call me now use the satellite
It's all right
It's all right 

Down and out and it'll sound all right
It's all right now
It's all right 

The California flower is poppy child
Felony sends me all the gold in your smile
Drift away from anyone you can
Nothing ever goes according to plan
Though I know that every river bends
Time to say hello to snow on the Thames
What could be wetter than
An English girl American man 

Chorus
  development and support by
dmitry ivanov