rock
 
|tablatures   |lyrics   |discussion forums   |more tabs @ XGuitar.com

Red Hot Chili Peppers tabs

Easily bass tab

Easily - Bass Tab

By the Red Hot Chili Peppers
>From the album Californication
Tabbed by Robert Petersson (mr.schh@post.netlink.se)

Intro
G|----------------5-7------------------------------|
D|------5-7-----7-----3-3--5-7--7-7-------5-7p5----|
A|----------5-------------------------5h7-------7--|
E|--5----------------------------------------------|

Verse 1
G|-------------------------5-7------------------------------| (x3)
D|--------5-7------------7-----3-3--5-7--7-7-7-----5-7p5----|
A|------------5--5-5-5-5-----------------------5h7-------7--|
E|--5-5-5---------------------------------------------------|

G|-------------------------5-7----------5-----------------|
D|--------5-7------------7-----3--3-3-3---7--7-7-7-7-7-7--|
A|------------5--5-5-5-5----------------------------------|
E|--5-5-5-------------------------------------------------|

Chorus 1 (Not exact, but itīs how I play it)
G|------5-------5----------------| (x2)
D|----5---5---5---5---5-------3--|
A|--3-------3-----------5---3----|
E|------------------3-----1------|

G|-------------------------------| (x2)
D|------7-------7---5---------3--|
A|----7---7---7---7---5-----3----|
E|--5-------5-----------3-1------|

Verse 2 (Same as Verse 1)

Chorus 2 (Same as Chorus 1, but twice)

Guitar Solo (Verse 1 x2 with variations)

Verse 3 (Intro + Last round of Verse 1)

Chorus 3 / Ending (Chorus 1 with variations until end)
  development and support by
dmitry ivanov