rock
 
|tablatures   |lyrics   |discussion forums   |more tabs @ XGuitar.com

Red Hot Chili Peppers tabs

Dosed bass tab

Here is Dosed for bass! This song took me about 3 1/2 hours to tab! But since i love the chili peppers..I tabbed it out for u guys!
Tabbed by: WannabeFunkyFlea
Tunning: Standard

Flea begins to play 0:09 into the song, Verse; Repeat till 1:14:
-----------------------------------I------------------------------------I
------4-5-----4-5------4-5-----7-5-I------4-5-----4-5-----4-5------/7-5-I
-3-3-----3-3------5-5-----7-7------I-3-3-----3-3-----5-5------7-7-------I
-----------------------------------I------------------------------------I

Sometimes Flea will throw in a few variants like these:
-----------------------------I------------------------------------I
-----4-5-----4-5-----/7-5----I-----4-5-----4-5-----4-5-----7-5----I
-3-3----3-3-----5-5------7-5-I-3-3-----3-3-----5-5-----7-7------7-I
-----------------------------I------------------------------------I


At 1:15 through 1:50 is the Chorus:
---------------------------------------------------------------I
-5-5-5-5-5---9h10/12-12-12-12--14-14-14-14--7-9-10-10-9-9------I
-----------------------------------------------------------12--I
---------------------------------------------------------------I

--------------------------------------------------------------I
-5-5-5-5-5-5-5------------------------------------------------I
-----------------5-5-5-5-5-5-5--7-7-7-7-7-7--3-3-3-3-3-3--7-8-I
--------------------------------------------------------------I

------------------------------------------------------------------I
-5-5-5-5-5--9h10/12-12-12-12---14-14-14-14--16-16-14-\10-10-9-9-7-I
------------------------------------------------------------------I
------------------------------------------------------------------I

-----------------------------------------------------------------I
-5-5-5-5-5-5-5-----------------------------------7-5-------------I
-------------------5-5-5-5-5-5-5--7-7-7-7-7-7-7------7-5--3-3-3--I
-----------------------------------------------------------------I

Back to verse at 1:51 through 2:23:

Then at 2:24 through 3:04 is the 2nd Chorus:   Play twice***Repeat
------------------------------------------------------------I
-5-5-5-5-5-5--9-10/12-12-12-10-12--14-16-14--10-10-9-9-7-7--I
------------------------------------------------------------I
------------------------------------------------------------I

-----------------------------------------------------------I
-5-5-5-5-5-5-5/7/5-----------------------------------------I
-----------------------0-5-5-5--7-7-7-7-7-7--3-3-3-3-3-3-3-I
-----------------------------------------------------------I

Now back to verse at 3:05 through 3:44, during this verse Flea plays some
variants like these:
----------------------------------------I
------4-5-----4-5-------------/14-12-10-I
-3-3-----3-3-----5-5-5-5-7--------------I
----------------------------------------I

-----------------------------------------I
------4-5-----4-5-----------10h12/14/10--I
-3-3-----3-3------5-5-5-7----------------I
-----------------------------------------I

At 3:45 through 4:18 is the 3rd Chorus and in this Chorus Flea plays the variants 
from the last two chorus' before... U will have to listen which variant is used...

Then at 4:19 through 4:26  is a little bridge:
-------------------------------------------------------------I
--------------------------------/10-10-10-10-10-10-10-10-10--I
-7-7-7-7-7-7-7-7-7-7-7-7-------------------------------------I
-------------------------------------------------------------I

Then back to verse for John's solo at 4:26 through 4:53:

After his solo is the Outro:
-------------------------------------------------------------------I
-------------------------------------------------------------------I
-3-3-3-3-3-3-3-3-3-3--2-2-2-2-2-2-2-2-2-3-2--0-0-0-0-0-0-0-0-0-----I
----------------------------------------------------------------3--I

Ok there is the whole song...Have fun w/ this one!!! 
PLEAZ RATE MY TAB!! APPRECIATE IT!
  development and support by
dmitry ivanov