rock
 
|tablatures   |lyrics   |discussion forums   |more tabs @ XGuitar.com

Red Hot Chili Peppers tabs

Dani California guitar tab

=====================
Dani California (2006)
Red Hot Chili Peppers
from Stadium Arcadium
======================
Copyright 2006 Rayen (Karol Dębkowski)
rayenx(at)o2(dot)pl
======================

This is my first fully tabbed song. Enjoy!
You can figure the rhytm by yourself without problems, I think - the song is great.

Standart Tuning (EBGDAE)

VERSE

Am C Dm Am - played through all the verses

PRECHORUS

Am C Dm Am

F G - make a slide between those (barre preferably)

CHORUS

Am F C Dm x 4

MIDDLE-SOLO


E:-------------------------------------|---------|
B:-------------------------------------|---------|
G:----5-7------------------------------|---------|
D:-4/7-------5---5---5---5-------------|---------|
A:-------------8---8-------8-5-5-----|----2/5---|
E:-------------------------------3--1-3|-1-------|

OUTRO

 E ------------------------------------|------------------------------|
 B ------6--3--------------------------|------6--3--------------13-15-|
 G 2--5--------------------------------|2--5--------5-2-5-2-5-7-------|
 D ------------5-3-5-3-5-3-5-3---------|------------------------------|
 A ----------------------------5p3--5--|------------------------------|
 E ------------------------------------|------------------------------|

 E ------------------------------------|-----------------------------|
 B ------6--3--------------------------|------6--3--------------13-15|
 G 2--5--------------------------------|2--5--------5-2-5-2-5-7------|
 D ------------5-3-5-3-5-3-5-3---------|-----------------------------|
 A ----------------------------5p3--5--|-----------------------------|
 E ------------------------------------|-----------------------------|

 E ------------------------------------|----------|
 B ---13h15--15p13----15p13----15p13---|-15p13----|
 G ----------------14-------14-------14|-------14-|
 D ------------------------------------|----------|
 A ------------------------------------|----------|
 E ------------------------------------|----------|

Repeat that afterwards.
  development and support by
dmitry ivanov