rock
 
|tablatures   |lyrics   |discussion forums   |more tabs @ XGuitar.com

Red Hot Chili Peppers tabs

C'mon Girl bass tab

-----------------------------------------------------------------------------
			     C'mon Girl - Red Hot Chili Peppers
-----------------------------------------------------------------------------

Tabbed By : Kevin A. (Felas_Kevin)
e-mail: vekiskev@yahoo.com

Tuning: standard

Update: I typed the chorus wrong and just barely noticed it now..

Verse 1:

G|------77-99-----99-77-----77-99-----99-77|
D|----99--------99--------99--------99-----|
A|--77--------77--------77--------77-------|
E|-----------------------------------------|

G|------77-99-----99-77-----77-99-----99-77|
D|----99--------99--------99--------99-----|
A|--77--------77--------77--------77-------|
E|-----------------------------------------|

G|-----77--------------------------------|
D|-5555--55-----77-------99--------------|
A|----------5555--55-7777--77-----1010---|
E|----------------------------8888----88-|

G|------77-99-----99-77-----77-99-----99-77|
D|----99--------99--------99--------99-----|
A|--77--------77--------77--------77-------|
E|-----------------------------------------|

G|------77-99-----99-77-----77-99-----99-77|
D|----99--------99--------99--------99-----|
A|--77--------77--------77--------77-------|
E|-----------------------------------------|

G|-----77--------------------------------|
D|-5555--55-----77-------99--------------|
A|----------5555--55-7777--77-----1010---|
E|----------------------------8888----88-|

G|-----77--------------------------------|
D|-5555--55-----77-------99--------------|
A|----------5555--55-7777--77-----1010---|
E|----------------------------8888----88-|

G|------77-99-----99-77-----77-99-----99-77|
D|----99--------99--------99--------99-----|
A|--77--------77--------77--------77-------|
E|-----------------------------------------|

G|------77-99-----99-77-----77-99-----99-77|
D|----99--------99--------99--------99-----|
A|--77--------77--------77--------77-------|
E|-----------------------------------------|

G|--------------4455-------------6677---------------4455-------------6677-|
D|-----5577---55--------4455---77----------5577---55-------44355---77-----|
A|---77-----33--------55-----55----------77-----33--------55-----55-------|
E|-55---------------33-----------------55---------------33----------------|

G|-------------------------------------------|
D|-------------------------------------------|
A|-------------------------------------------|
E|-7-7-7-7-7-7-7-7-7/19-19-19-19-19-19-19-19-|

Chorus:

G|-------------------------------|
D|----5---------------5----------|
A|-777---------5---777-----------|
E|------7-777-7---------7-777-77-| x8

Verse 2:

G|------77-99-----99-77-----77-99-----99-77|
D|----99--------99--------99--------99-----|
A|--77--------77--------77--------77-------|
E|-----------------------------------------|

G|------77-99-----99-77-----77-99-----99-77|
D|----99--------99--------99--------99-----|
A|--77--------77--------77--------77-------|
E|-----------------------------------------|

G|-----77--------------------------------|
D|-5555--55-----77-------99--------------|
A|----------5555--55-7777--77-----1010---|
E|----------------------------8888----88-|

G|------77-99-----99-77-----77-99-----99-77|
D|----99--------99--------99--------99-----|
A|--77--------77--------77--------77-------|
E|-----------------------------------------|

G|------77-99-----99-77-----77-99-----99-77|
D|----99--------99--------99--------99-----|
A|--77--------77--------77--------77-------|
E|-----------------------------------------|

G|-----77--------------------------------|
D|-5555--55-----77-------99--------------|
A|----------5555--55-7777--77-----1010---|
E|----------------------------8888----88-|

G|------77-99-----99-77-----77-99-----99-77|
D|----99--------99--------99--------99-----|
A|--77--------77--------77--------77-------|
E|-----------------------------------------|

G|------77-99-----99-77-----77-99-----99-77|
D|----99--------99--------99--------99-----|
A|--77--------77--------77--------77-------|
E|-----------------------------------------|

G|-----77--------------------------------|
D|-5555--55-----77-------99--------------|
A|----------5555--55-7777--77-----1010---|
E|----------------------------8888----88-|

G|-----77--------------------------------|
D|-5555--55-----77-------99--------------|
A|----------5555--55-7777--77-----1010---|
E|----------------------------8888----88-|

G|------77-99-----99-77-----77-99-----99-77|
D|----99--------99--------99--------99-----|
A|--77--------77--------77--------77-------|
E|-----------------------------------------|

G|------77-99-----99-77-----77-99-----99-77|
D|----99--------99--------99--------99-----|
A|--77--------77--------77--------77-------|
E|-----------------------------------------|

G|--------------4455-------------6677---------------4455-------------6677-|
D|-----5577---55--------4455---77----------5577---55-------44355---77-----|
A|---77-----33--------55-----55----------77-----33--------55-----55-------|
E|-55---------------33-----------------55---------------33----------------|

G|-------------------------------------------|
D|-------------------------------------------|
A|-------------------------------------------|
E|-7-7-7-7-7-7-7-7-7/19-19-19-19-19-19-19-19-|

Chorus x8

Verse 3:

G|------77-99-----99-77-----77-99-----99-77|
D|----99--------99--------99--------99-----|
A|--77--------77--------77--------77-------|
E|-----------------------------------------|

G|------77-99-----99-77-----77-99-----99-77|
D|----99--------99--------99--------99-----|
A|--77--------77--------77--------77-------|
E|-----------------------------------------|

G|-----77--------------------------------|
D|-5555--55-----77-------99--------------|
A|----------5555--55-7777--77-----1010---|
E|----------------------------8888----88-|

G|------77-99-----99-77-----77-99-----99-77|
D|----99--------99--------99--------99-----|
A|--77--------77--------77--------77-------|
E|-----------------------------------------|

G|------77-99-----99-77-----77-99-----99-77|
D|----99--------99--------99--------99-----|
A|--77--------77--------77--------77-------|
E|-----------------------------------------|

G|-----77--------------------------------|
D|-5555--55-----77-------99--------------|
A|----------5555--55-7777--77-----1010---|
E|----------------------------8888----88-|

G|------77-99-----99-77-----77-99-----99-77|
D|----99--------99--------99--------99-----|
A|--77--------77--------77--------77-------|
E|-----------------------------------------|

G|------77-99-----99-77-----77-99-----99-77|
D|----99--------99--------99--------99-----|
A|--77--------77--------77--------77-------|
E|-----------------------------------------|

G|-----77--------------------------------|
D|-5555--55-----77-------99--------------|
A|----------5555--55-7777--77-----1010---|
E|----------------------------8888----88-|

G|-----77--------------------------------|
D|-5555--55-----77-------99--------------|
A|----------5555--55-7777--77-----1010---|
E|----------------------------8888----88-|

G|------77-99-----99-77-----77-99-----99-77|
D|----99--------99--------99--------99-----|
A|--77--------77--------77--------77-------|
E|-----------------------------------------|

G|------77-99-----99-77-----77-99-----99-77|
D|----99--------99--------99--------99-----|
A|--77--------77--------77--------77-------|
E|-----------------------------------------|

G|--------------4455-------------6677---------------4455-------------6677-|
D|-----5577---55--------4455---77----------5577---55-------44355---77-----|
A|---77-----33--------55-----55----------77-----33--------55-----55-------|
E|-55---------------33-----------------55---------------33----------------|

G|-------------------------------------------|
D|-------------------------------------------|
A|-------------------------------------------|
E|-7-7-7-7-7-7-7-7-7/19-19-19-19-19-19-19-19-|

Chorus x8

Solo:

G|-------------------------------|
D|----5---------------5----------|
A|-777---------5---777-----------|
E|------7-777-7---------7-777-77-|

G|--------------------------7-7-9-|
D|----5---------------5--7h9-9----|
A|-777---------5---777--5---------|
E|------7-777-7--------7----------|

G|-------------------------------|
D|----5---------------5----------|
A|-777---------5---777-----------|
E|------7-777-7---------7-777-77-|

G|---------7-9-7----------|
D|----5-7h9-9---9---------|
A|-777------------7~~~----|
E|-----7------------------|

There you go. Please rate :)
email any comments to: vekiskev@yahoo.com

| /  slide up
| \  slide down
| h  hammer-on
| p  pull-off
| ~  let ring
| +  harmonic
| x  Mute note
=============================================================================
  development and support by
dmitry ivanov