rock
 
|tablatures   |lyrics   |discussion forums   |more tabs @ XGuitar.com

Red Hot Chili Peppers tabs

Castles Made Of Sand bass tab

artist: red hot chili peppers
Song: castles made of sand
album: out in la
Chorus and Intro
G----------------------------------------------------
D-(5)----------------/7------------------------------
A--------------2-5-2----5-5-2-3-5-5----3-3-3h5p3-1-3-
E----3-3---3-3----------------------3h5--------------

G---------------------------------
D---------5-----3-3------5-5------
A-----3-----3h5------5h7-----1h3--
E-3h5---3-----------------------3-
Verse
G----------------------------------------------
D-----------------------2--2-2-2-2-3---5---3-5-
A------------0--0-0-0-0--------------3---------
E-1--1-1-1-1-----------------------------------
Guitar solo
G------------------3-------------------3--------------
D-5-5-3-5-3-5-------5-3-5-3-5-3-5-------5-3-5-3-5-3-5-
A-------------4-5-----------------4-5-----------------
E-----------------------------------------------------

G-----3-----------7-7/9/12-10-------
D-------5-5/7-7/9-------------12-10-
A-4-5-------------------------------
E-----------------------------------
  development and support by
dmitry ivanov